Search tabs and chords

Search for song, artist or band

Log in

One click and you are in

Login with Facebook Login with Google

Why sign up and log in

Guitar Tabs Explorer
Nekromantix guitar tabs for No more room in hell

Guitar tabs

Tuning: Standard (E chord diagramEE A chord diagramAA D chord diagramDD G chord diagramGG B chord diagramBB E chord diagramEE)

Difficulty: Intermediate

Intro/Verse:
e|-------------------------------------------|------------------------------------|
B|-------------------------------------------|------------------------------------|
G|-------------------------------------------|------------------------------------|
D|-------------2-------------2---------------|-------2------------2---------------|
A|---------4-----------4---------4-----------|---4-----------4--------4-----------|
E|---4-------------4-----------------4---3---|-----------3----------------3---2---|

e|--------------------------------------------------------------------|
B|--------------------------------------------------------------------|
G|--------------------------------------------------------------------|
D|-------2-------------2---------------------2------------4---2-------|
A|---4-----------4---------4-------------4------------------------4---|
E|-----------2-----------------2---3------------3---4-----------------|

Pre-Chorus:
e|----------------------------------------------|----------------------------------------------------|
B|----------------------------------------------|----------------------------------------------------|
G|----------------------------------------------|---------------------9----9--9----9--9/11---11-11---|
D|---6-x-6-x-6---6-----5----5--5--x-x---5/6\5---|---6-x-6-x-6---6--x--9----9--9----9--9/11---11-11---|
A|---4-x-4-x-7---4-----3----3--3--x-x---3/4\3---|---4-x-4-x-7---4--x--7----7--7----7--7/9----9--9----|
E|----------------------------------------------|---------------------0----0--0----0--0--------------|

e|--------------------------------------------------|---------------------------------------------------|
B|--------------------------------------------------|---------------------------------------------------|
G|--------------------------------------6b7r6---4---|---------------------------------------------------|
D|---6-x-6-x-6---6-----5----5--5--x-x---6b7r6---4---|---6-x-6-x-6---6--x--------------------------------|
A|---4-x-4-x-7---4-----3----3--3--x-x---------------|---4-x-4-x-7---4--x----5----5--4----4--2----2--4---|
E|--------------------------------------------------|-----------------------3----3--2----2--0----0--2---|

Chorus:
e|----------------------------------------------|-----------------------------------------------------|
B|----------------------------------------------|-----------------------------------------------------|
G|---6-x-6-x-6---6--x--5----5--5-x-4h5--5---5---|---4-x-4-x-4-4--4---4------3------3---3----x-4-x-5---|
D|---6-x-6-x-6---6--x--6----6--6-x-6-6--6---6---|---4-x-4-x-3h4--4---4------4------4---4----x-4-x-5---|
A|---4-x-4-x-4---4--x--3----3--3-x-3-3--3---3---|---2-x-2-x-2-2--2---2------1------1---1----x-2-x-3---|
E|----------------------------------------------|-----------------------------------------------------|

Pre-solo:
e|-----------------------------------------------------------------|-------------------------------|
B|-----------------------------------------------------------------|-------------------------------|
G|------x-----x---------------x-----x---------------x-----x--------|-------------------------------|
D|------x--6--x---------------x--6--x---------------x--6--x--------|---2-------2--4---2------------|
A|---4--x-----x--2/4------3~--x-----x--2/4~------2--x-----x--2/4---|--------4------------4---2/4---|
E|-----------------------------------------------------------------|-------------------------------|

Solo:
e|---------------------------------------------------------------------|
B|---------------------------------------------------------------------|
G|---6---6--6--4h6----4b5----------------------------------------------|
D|-------------------------6------6--6--6----4---4--4--2h4----2b3------|
A|-----------------------------------------------------------------4---|
E|---------------------------------------------------------------------|

e|----------------------------------------------------------------|
B|--------------------5b6---------------5--7b8--7--5--7--5--------|
G|---6---6--6--4h6---------6------4--6------------------------6---|
D|----------------------------------------------------------------|
A|----------------------------------------------------------------|
E|----------------------------------------------------------------|

Outro Solo:
e|----------------------------------------------------------------------|
B|----------------------------------------------------------------------|
G|----------------------------------------------------------------------|
D|--------------------2b3--------------------4b5----4--2--4--2----------|
A|---4---4--4--2h4---------4-------4--2--4--------------------------4---|
E|----------------------------------------------------------------------|

e|----------------------------------------------------------------------------------|
B|----------------------------------------------------------------------------------|
G|--------------------------------------------------------------------------4b5-----|
D|--------------------2b3---------------------4b5----4--2--4--2---4/6---6-------6---|
A|---4---4--4--2h4---------4-------4--2--4------------------------------------------|
E|----------------------------------------------------------------------------------|

e|-----------------------------------------------------------------------------------------------------------|
B|-----------------------------------------------------------------------------------------------------------|
G|------------------4b5-------------------------4b5-------------------------4b5------------------------------|
D|---6---6---4h6-6-------6--------6--6---4h6-6-------6--------6--6---4h6-6-------6---------------------------|
A|-------------------------------------------------------------------------------------2/4-4--7p4-4----2/4---|
E|-----------------------------------------------------------------------------------------------------------|



************************************

| /  Slide up
| x  Dead note
| \  Slide down
| r  Release
| b  Bend
| h  Hammer-on
| ~  Vibrato
| p  Pull-off

************************************

Almost there ...

Sign in to get your own page with links to favourite songs and more. You are just one click away...

Login with Facebook Login with Google