Search tabs and chords

Search for song, artist or band

Log in

One click and you are in

Login with Facebook Login with Google

Why sign up and log in

Guitar Tabs Explorer
Nekromantix guitar tabs for Nekrofelia

Guitar tabs

Tuning: Standard
Tabbed by: False Inspiration (AFS)

  Thought this was a great song...tabbed it out by the way I HEAR IT... so enjoy :)

 Intro:
e|-----------------1~-----------------------------1~--------------|
B|-----------------1~-----------------------------1~--------------|
G|-----------------2~-----------------------------2~--------------|
D|-7~--------------3~--2-3-2-3----7~--------------3~--------------|
A|-7~--2-3-2h3--------------------7~---2-3—2h3--------------------|
E|-5~----------1------------------5~-----------1------------------|
e|-------------------------------------1~-------------------------|
B|-------------------------------------1~-------------------------|
G|-------------------------------------2~-------------------------|
D|-2-3-5-5-3-2-------------------------3~------------7~-----------|
A|-------------3—3h5b6~--3-2---------------2-3-2h3---7~-----------|
E|---------------------------3~-3-2-1----------------5~-----------|

e|------------------------------------------------------------|
B|------------------------------------------------------------|
G|------------------------------------------------------------|
D|------------------7-------------------7---------------------|
A|---------222-333--7----------222-333--7---------------------|
E|-333-111----------5--333-111----------5---------------------|

 Verse 1: (0:32)
e|---------------1~----------------------------1~-----------------|
B|---------------1~----------------------------1~-----------------|
G|---------------2~----------------------------2~-----------------|
D|-7-------------3~---2-3-2-3----7-------------3~---2-3-5---------|
A|-7--2-3-2h3--------------------7---2-3—2h3----------------------|
E|-5----------1------------------5-----------1--------------------|
  “My sweet baby she passed away...

Chorus:
e|-----------------------------1~----------[--------------------]-----------|
B|-----------------------------1~----------[--------------------]-----------|
G|-5-55-5-5-55-----------------2~----------[*------------------*]-----------|
D|-5-55-5-5-55-5-55-5-5-5-4-3--3~----------[*-7----------------*]-----------|
A|-3-33-3-3-33-5-55-5-5-5-4-3-----2-3-2h3--[--7---------222-333-]-----------|
E|-------------3-33-3-3-3-2-1--------------[--5-333-111---------]-----------|
  “Baby, Baby, She wrote to me...”

 Verse 2:
e|---------------1~------------------------------1~---------------|
B|---------------1~------------------------------1~---------------|
G|---------------2~------------------------------2~---------------|
D|-7-------------3~---2-3-2-3----7---------------3~---2-3-5-------|
A|-7--2-3-2h3--------------------7---2-3—2h3----------------------|
E|-5----------1------------------5-----------1--------------------|
  “We used to play this innocent game...”

Chorus:
e|--------------------------------1~----------[--------------------]-----|
B|--------------------------------1~----------[--------------------]-----|
G|-5-55-5-5-55--------------------2~----------[*------------------*]-----|
D|-5-55-5-5-55-5-5-4/5-5-5-4-3----3~----------[*-7----------------*]-----|
A|-3-33-3-3-33-5-5-4/5-5-5-4-3--------2-3-2h3-[--7---------222-333-]-----|
E|-------------3-3-2/3-3-3-2-1----------------[--5-333-111---------]-----|
  “Baby, Baby, She wrote to me...”

 Solo:  (1:37)
e|-----------------------------------------------------------------------|
B|-----------6~--5-6-5---10~------------6--55-6-8-8-6-5------------------|
G|-4-5-4h5-------------------4-5-4h5--------------------5-5h7b8b7~-5-4---|
D|---------3----------7-------------3----------------------------------5-|
A|-----------------------------------------------------------------------|
E|-----------------------------------------------------------------------|


e|--------------------------------------------------------------------|
B|-------6~-----------------------------------------------------------|
G|----------4-5-4h5-----------444-555-------------444-555-------------|
D|-5-4-3------------7-555-333---------7~--555-333---------7~----------|
A|--------------------------------------------------------------------|
E|--------------------------------------------------------------------|


 Verse 3:  (2:06)
e|--------------1~------------------------------1~----------------|
B|--------------1~------------------------------1~----------------|
G|--------------2~------------------------------2~----------------|
D|-7------------3~----2-3-2-3--7----------------3~--2-3-5---------|
A|-7--2-3-2h3------------------7---2-3—2h3------------------------|
E|-5----------1----------------5-----------1----------------------|
  “A wicked world of any kind...”

 Chorus/End:
e|------------------------------1~----------[--------------------]--------|
B|------------------------------1~----------[--------------------]--------|
G|-5-55-5-5-55------------------2~----------[*------------------*]--------|
D|-5-55-5-5-55-5-4/5-5-5-5-4-3--3~----------[*-7----------------*]--------|
A|-3-33-3-3-33-5-4/5-5-5-5-4-3------2-3-2h3-[--7---------222-333-]--------|
E|-------------3-2/3-3-3-3-2-1--------------[--5-333-111---------]--------|
  “Baby, Baby, She wrote to me...”

e|--------------------|
B|--------------------|
G|--------------------|
D|------------------7-|
A|---------222-333--7-|
E|-333-111----------5-|

Almost there ...

Sign in to get your own page with links to favourite songs and more. You are just one click away...

Login with Facebook Login with Google