Search tabs and chords

Search for song, artist or band

Log in

One click and you are in

Login with Facebook Login with Google

Why sign up and log in

Guitar Tabs Explorer
Nekromantix guitar tabs for Haunted cathouse

Guitar tabs

----------------------------------------------------------------------------
			  HAUNTED CATHOUSE - Nekromantix
----------------------------------------------------------------------------
Tabbed by: Josh Pinto

Tuning: Standard

e|----------------------------------------------------------8----10-----|
B|------------------------------------------------------------7-----7---|
G|-8---------------8-----------------3---3-3h5-3h5---3--7h8-----7-----7-|
D|-8-7-5-4h5---5-7--8-7-5-4h5---3h5----5-----------5--------------------|
A|-----------5----------------6-----------------------------------------|
E|----------------------------------------------------------------------|

e|----------------------------------------------------------------------|
B|----------------11-----------------------------------------/11-10-----|
G|-12-11-12-11-12----12p11-12-11-12-11-12-----11h12-10----10--------12--|
D|----------------------------------------13-----------12---------------|
A|----------------------------------------------------------------------|
E|----------------------------------------------------------------------|

e|----------------------|
B|----10-10h11p10---10\-|
G|-12-------------12----|
D|----------------------|
A|----------------------|
E|----------------------|

That's all there is to it, I'm guessing it's about 97% right, I know that there are some
that aren't quite it, but it still sounds fine. I will post a link to a video of me
it to make it easier to learn, but this is a fun and great Nekromantix song to play.

************************************

| /   slide up
| \   slide down
| h   hammer-on
| p   pull-off
| ~   vibrato
| +   harmonic
| x   Mute note
| b   Bend
| pb  Pre-bend
| br  Bend release
| pbr Pre-bend release
| brb Bend release bend

Almost there ...

Sign in to get your own page with links to favourite songs and more. You are just one click away...

Login with Facebook Login with Google