Search tabs and chords

Search for song, artist or band

Log in

One click and you are in

Login with Facebook Login with Google

Why sign up and log in

Guitar Tabs Explorer
Nekromantix guitar tabs for Devil smile

Guitar tabs

nekromantix
devil smile
tabbed by Francisco Gallegos


|--------------------------------------------------------------------------|
|--------------------------------------------------------------------------|
|4-----------4--------------4--------------4-------------------------------|
|4-----------4--------------4--------------4-------------------------------|
|2-2-4-5-5-2-2-2-4-5-5-2222-2-2-4-5-5-2222-2-2-4-5-5-2-let ring------------|
|--0-2-3-3-0---0-2-3-3-0000---0-2-3-3-0000---0-2-3-3-0-let ring------------|

|--------------------------------------------------------------------------|
|--------------------------------------------------------------------------|
|--------------------------------------------------------------------------|
|---------5-------------3-7-6-5---repeat4x---------------------------------|
|-5-5h6h7-765---3-3h4h5---5-4-3---repeat4x---------------------------------|
|7-------------5------------------repeat4x---------------------------------|

|5555-3-let ring-2-let ring|repeat-|4x
|5555-3-let ring-2-let ring|repeat-|4x
|6666-4-let ring-3-let ring|repeat-|4x
|7777-5-let ring-4-let ring|repeat-|4x
|7777-5-let ring-4-let ring|repeat-|4x

|---------------------------------------------------------------------------|
|---------------------------------------------------------------------------|
|22222222222222-55555555555555-99999999999999-88888888888888----------------|
|22222222222222-55555555555555-99999999999999-88888888888888----------------|
|00000000000000-33333333333333-77777777777777-66666666666666----------------|
|---------------------------------------------------------------------------|

|0~pull wammy back3x
|0~pull wammy back3x
|0~pull wammy back3x
|0~pull wammy back3x
|0~pull wammy back3x
|0~pull wammy back3x

|--------------------------------------------------------------------------|
|--------------------------------------------------------------------------|
|--------------------------------------------------------------------------|
|---------5-------------3-7-6-5-repeat2x-----------------------------------|
|-5-5h6h7-765---3-3h4h5---5-4-3-repeat2x-----------------------------------|
|7-------------5----------------repeat2x-----------------------------------|

|5555-3-let ring-2-let ring|repeat-|4x
|5555-3-let ring-2-let ring|repeat-|4x
|6666-4-let ring-3-let ring|repeat-|4x
|7777-5-let ring-4-let ring|repeat-|4x
|7777-5-let ring-4-let ring|repeat-|4x

|---------------------------------------------------------------------------|
|---------------------------------------------------------------------------|
|22222222222222-55555555555555-99999999999999-88888888888888----------------|
|22222222222222-55555555555555-99999999999999-88888888888888----------------|
|00000000000000-33333333333333-77777777777777-66666666666666----------------|
|---------------------------------------------------------------------------|

|0~pull wammy back3x
|0~pull wammy back3x
|0~pull wammy back3x
|0~pull wammy back3x
|0~pull wammy back3x
|0~pull wammy back3x

|--------------------------------------------------------------------------|
|--------------------------------------------------------------------------|
|--------------------------------------------------------------------------|
|---------5-------------3-7-6-5-repeat4x-----------------------------------|
|-5-5h6h7-765---3-3h4h5---5-4-3-repeat4x-----------------------------------|
|7-------------5----------------repeat4x-----------------------------------|

___________________________________________________________________________

solo i dont know but if you know it plz message me

|0~pull wammy back3x
|0~pull wammy back3x
|0~pull wammy back3x
|0~pull wammy back3x
|0~pull wammy back3x
|0~pull wammy back3x

second solo
|032p0532p0 repeat necesary times--------------------|
|----------------------------------------------------|
|----------------------------------------------------|
|----------------------------------------------------|
|----------------------------------------------------|
|----------------------------------------------------|

i think they play this

|---------------------------------------------------------------------------|
|---------------------------------------------------------------------------|
|22222222222222-55555555555555-99999999999999-88888888888888----------------|
|22222222222222-55555555555555-99999999999999-88888888888888----------------|
|00000000000000-33333333333333-77777777777777-66666666666666----------------|
|---------------------------------------------------------------------------|

|--------------------------------------------------------------------------|
|--------------------------------------------------------------------------|
|4-----------4--------------4--------------4-------------------------------|
|4-----------4--------------4--------------4-------------------------------|
|2-2-4-5-5-2-2-2-4-5-5-2222-2-2-4-5-5-2222-2-2-4-5-5-2-let ring------------|
|--0-2-3-3-0---0-2-3-3-0000---0-2-3-3-0000---0-2-3-3-0-let ring------------|

thats it plz rate


p=pull off
~=wammy bar

Almost there ...

Sign in to get your own page with links to favourite songs and more. You are just one click away...

Login with Facebook Login with Google