Log in

One click and you are in

Login with Facebook Login with Google

Why sign up and log in

Guitar Tabs Explorer
The Neighbourhood guitar tabs for Wiped out

Solo tabs

Solo:

e|---------------------------------------------------------------------------|
B|----10-----10--------------------------------------------------------------|
G|--12--/9--12--/9--12-10-9-------7h9-7--------------------------------------|
D|--------------------------10--7--------------------------------------------|
A|---------------------------------------------------------------------------|
E|---------------------------------------------------------------------------|

e|---------------------------------------------------------------------------|
B|----10-----10--------------------------------------------------------------|
G|--12--/9--12--/9--12-10-9--------------------------------------------------|
D|--------------------------10-7---------------------------------------------|
A|---------------------------------------------------------------------------|
E|---------------------------------------------------------------------------|


************************************
| h   Hammer-on
| /   Slide up

Other versions of Wiped Out

Wiped outChords

Almost there ...

Sign in to get your own page with links to favourite songs and more. You are just one click away...

Login with Facebook Login with Google