Log in

One click and you are in

Login with Facebook Login with Google

Why sign up and log in

Guitar Tabs Explorer
The Neighbourhood bass tabs for Wdywfm

Bass tabs

Tuning: Standard (E A D G)


Verse(startsat0:36)
G|-----------------------------------------------------------------------------------|
D|-----------------------------------------------------------------------------------|
A|------------6-6-6-6---------------------------------6-6-6-6-------------4-4---2-2--|
E|--0-0-0-0-------------4-4-4-4---4-4-4-4---0-0-0-0-------------4-4-4-4--------------|

G|----------------------------------------------------------------------------|
D|----------------------------------------------------------------------------|
A|------------6-6-6-6-------------4--2-------------6-6-6-6-------------4---2--|
E|--0-0-0-0-------------4-4-4-4----------0-0-0-0-------------4-4-4-4----------|

Leadin
G|-----------------------|
D|-----------------------|
A|-----2--4--2--1---1/6--|
E|--4--------------------|


Chorus:
G|-------------------------------------------------------------|
D|------------------------------9------------------------------|
A|--4----6---4------------------------4----6---4---------------|
E|---------------7---4----7---7---7----------------7---4----7--|

G|--------------------------------------------------|
D|--------------------------------------------------|
A|-----------6---------4--2--------6----------4--2--|
E|--0-0-0---------4-----------0---------4-----------|

Nobassoverthefirstlineoftheverse(1:46-2:00)
G|-----------------------------------------------------------------------------------|
D|-----------------------------------------------------------------------------------|
A|------------6-6-6-6---------------------------------6-6-6-6-------------4-4---2-2--|
E|--0-0-0-0-------------4-4-4-4---4-4-4-4---0-0-0-0-------------4-4-4-4--------------|

Leadin
G|-----------------------|
D|-----------------------|
A|-----2--4--2--1---1/6--|
E|--4--------------------|

Chorus:
G|-------------------------------------------------------------|
D|------------------------------9------------------------------|
A|--4----6---4------------------------4----6---4---------------|
E|---------------7---4----7---7---7----------------7---4----7--|

G|--------------------------------------------------|
D|--------------------------------------------------|
A|-----------6---------4--2--------6----------4--2--|
E|--0-0-0---------4-----------0---------4-----------|


Bridge:
G|---------------------------------------------------------------------------------|
D|---------------------------------------------------------------------------------|
A|--4---6--4----------------4----6--4----------------4-4-4-4--6--4-----------------|
E|------------7---4------7--------------7---4----7------------------7--4-4-4-4/13--|


Instrumental:
G|-----------------------------------------------------------------------------------|
D|-----------------------------------------------------------------------------------|
A|------------6-6-6-6-------------4-4--2-2-------------6-6-6-6-------------4-4--2-2--|
E|--0-0-0-0-------------4-4-4-4--------------0-0-0-0-------------4-4-4-4-------------|

Lastchorus
G|-----------------------------------------------------------|
D|-----------------------------------------------------------|
A|--4----6---4-----------5-------4----6---4-----------5------|
E|---------------7---4-------7----------------7---4-------7--|

G|--------------------------------------------------------|
D|--------------------------------------------------------|
A|--4----6---4-----------5-------4----6---4-----------5---|
E|---------------7---4-------7----------------7---4-------|

Almost there ...

Sign in to get your own page with links to favourite songs and more. You are just one click away...

Login with Facebook Login with Google