Log in

One click and you are in

Login with Facebook Login with Google

Why sign up and log in

Guitar Tabs Explorer
The Neighbourhood bass tabs for Sweater weather

Sweater Weather bass tab by The Neighbourhood

The Neighbourhood bass tabs for Sweater weather

Bass tabs

Tuning: D Tuning (D G C F)

Key: Eb

Difficulty: Novice
Intro:

No bass


Verse 1:

F|------------------------------------------------|------------------------------------------------|
C|------------------------------------------------|------------------------------------------------|
G|------------------------------------------------|------------------------------------------------|
D|-1-----1-----1-----1----------------------------|------------------------------------------------|

F|------------------------------------------------|------------------------------------------------|
C|------------------------------------------------|------------------------------------------------|
G|-0-----0-----0-----0----------------------------|-5-----5-----5-----------3-----3-----3----------|
D|------------------------------------------------|------------------------------------------------|

F|------------------------------------------------|------------------------------------------------|
C|------------------------------------------------|------------------------------------------------|
G|------------------------------------------------|------------------------------------------------|
D|-1-----1-----1-----1----------------------------|------------------------------------------------|

F|------------------------------------------------|------------------------------------------------|
C|------------------------------------------------|------------------------------------------------|
G|-0-----0-----0-----0----------------------------|-5-----5-----5-----------3-----3-----3----------|
D|------------------------------------------------|------------------------------------------------|

F|------------------------------------------------|------------------------------------------------|
C|------------------------------------------------|------------------------------------------------|
G|------------------------------------------------|------------------------------------------------|
D|-1-----1-----1-----1----------------------------|------------------------------------------------|

F|------------------------------------------------|------------------------------------------------|
C|------------------------------------------------|------------------------------------------------|
G|-0-----0-----0-----0----------------------------|-5-----5-----5-----------3-----3-----3----------|
D|------------------------------------------------|------------------------------------------------|

F|------------------------------------------------|------------------------------------------------|
C|------------------------------------------------|------------------------------------------------|
G|------------------------------------------------|------------------------------------------------|
D|-1-----1-----1-----1----------------------------|------------------------------------------------|

F|------------------------------------------------|------------------------------------------------|
C|------------------------------------------------|------------------------------------------------|
G|-0-----0-----0-----0----------------------------|-5-----5-----5-----------3-----3-----3----------|
D|------------------------------------------------|------------------------------------------------|


Pre-Chorus:

F|------------------------------------------------|------------------------------------------------|
C|------------------------------------------------|------------------------------------------------|
G|-------------------------------------3----------|-5----------------------------------------------|
D|-1----------------------------------------------|-------------------------------------3----------|

F|------------------------------------------------|------------------------------------------------|
C|------------------------------------------------|------------------------------------------------|
G|-0-----------------------------------2----------|-3-----------2-----------------------2----------|
D|------------------------------------------------|-------------------------3----------------------|

F|------------------------------------------------|------------------------------------------------|
C|------------------------------------------------|------------------------------------------------|
G|-------------------------------------3----------|-5----------------------------------------------|
D|-1----------------------------------------------|-------------------------------------3----------|

F|------------------------------------------------|------------------------------------------------|
C|------------------------------------------------|------------------------------------------------|
G|-0-----------------------------------2----------|-3-----------2-----------------------2----------|
D|------------------------------------------------|-------------------------3----------------------|


Chorus:

F|------------------------------------------------|------------------------------------------------|
C|------------------------------------------------|------------------------------------------------|
G|------------------------------------------------|-5~---------------------------------------------|
D|-1~---------------------------------------------|------------------------------------------------|

F|------------------------------------------------|------------------------------------------------|
C|------------------------------------------------|------------------------------------------------|
G|-0~---------------------------------------------|-3~---------------------------------------------|
D|------------------------------------------------|------------------------------------------------|

F|------------------------------------------------|------------------------------------------------|
C|------------------------------------------------|------------------------------------------------|
G|------------------------------------------------|-5~---------------------------------------------|
D|-1~---------------------------------------------|------------------------------------------------|

F|------------------------------------------------|------------------------------------------------|
C|------------------------------------------------|------------------------------------------------|
G|-0~---------------------------------------------|-3~---------------------------------------------|
D|------------------------------------------------|------------------------------------------------|


Verse 2:

F|------------------------------------------------|------------------------------------------------|
C|------------------------------------------------|------------------------------------------------|
G|------------------------------------------------|------------------------------------------------|
D|-1-----1-----1-----1----------------------------|------------------------------------------------|

F|------------------------------------------------|------------------------------------------------|
C|------------------------------------------------|------------------------------------------------|
G|-0-----0-----0-----0----------------------------|-5-----5-----5-----------3-----3-----3----------|
D|------------------------------------------------|------------------------------------------------|

F|------------------------------------------------|------------------------------------------------|
C|------------------------------------------------|------------------------------------------------|
G|------------------------------------------------|------------------------------------------------|
D|-1-----1-----1-----1----------------------------|------------------------------------------------|

F|------------------------------------------------|------------------------------------------------|
C|------------------------------------------------|------------------------------------------------|
G|-0-----0-----0-----0----------------------------|-5-----5-----5-----------3-----3-----3----------|
D|------------------------------------------------|------------------------------------------------|

F|------------------------------------------------|------------------------------------------------|
C|------------------------------------------------|------------------------------------------------|
G|------------------------------------------------|------------------------------------------------|
D|-1-----1-----1-----1----------------------------|------------------------------------------------|


Pre-Chorus:

F|------------------------------------------------|------------------------------------------------|
C|------------------------------------------------|------------------------------------------------|
G|-0-----0-----0-----0----------------------------|-5-----5-----5-----------3-----3-----3----------|
D|------------------------------------------------|------------------------------------------------|

F|------------------------------------------------|------------------------------------------------|
C|------------------------------------------------|------------------------------------------------|
G|-------------------------------------3----------|-5----------------------------------------------|
D|-1----------------------------------------------|-------------------------------------3----------|

F|------------------------------------------------|------------------------------------------------|
C|------------------------------------------------|------------------------------------------------|
G|-0-----------------------------------2----------|-3-----------2-----------------------2----------|
D|------------------------------------------------|-------------------------3----------------------|

F|------------------------------------------------|------------------------------------------------|
C|------------------------------------------------|------------------------------------------------|
G|-------------------------------------3----------|-5----------------------------------------------|
D|-1----------------------------------------------|-------------------------------------3----------|

F|------------------------------------------------|------------------------------------------------|
C|------------------------------------------------|------------------------------------------------|
G|-0-----------------------------------2----------|-3-----------2-----------------------2----------|
D|------------------------------------------------|-------------------------3----------------------|


Chorus:

F|------------------------------------------------|------------------------------------------------|
C|------------------------------------------------|------------------------------------------------|
G|------------------------------------------------|-5~---------------------------------------------|
D|-1~---------------------------------------------|------------------------------------------------|

F|------------------------------------------------|------------------------------------------------|
C|------------------------------------------------|------------------------------------------------|
G|-0~---------------------------------------------|-3~---------------------------------------------|
D|------------------------------------------------|------------------------------------------------|

F|------------------------------------------------|------------------------------------------------|
C|------------------------------------------------|------------------------------------------------|
G|------------------------------------------------|-5~---------------------------------------------|
D|-1~---------------------------------------------|------------------------------------------------|

F|------------------------------------------------|------------------------------------------------|
C|------------------------------------------------|------------------------------------------------|
G|-0~---------------------------------------------|-3~---------------------------------------------|
D|------------------------------------------------|------------------------------------------------|

F|------------------------------------------------|------------------------------------------------|
C|------------------------------------------------|------------------------------------------------|
G|------------------------------------------------|-5~---------------------------------------------|
D|-1~---------------------------------------------|------------------------------------------------|

F|------------------------------------------------|------------------------------------------------|
C|------------------------------------------------|------------------------------------------------|
G|-0~---------------------------------------------|-3~---------------------------------------------|
D|------------------------------------------------|------------------------------------------------|

F|------------------------------------------------|------------------------------------------------|
C|------------------------------------------------|------------------------------------------------|
G|------------------------------------------------|-5~---------------------------------------------|
D|-1~---------------------------------------------|------------------------------------------------|

F|------------------------------------------------|------------------------------------------------|
C|------------------------------------------------|------------------------------------------------|
G|-0~---------------------------------------------|-3~---------------------------------------------|
D|------------------------------------------------|------------------------------------------------|

F|------------------------------------------------|------------------------------------------------|
C|------------------------------------------------|------------------------------------------------|
G|------------------------------------------------|------------------------------------------------|
D|------------------------------------------------|------------------------------------------------|


Interlude:

No bass for 8 bars,

F|------------------------------------------------|------------------------------------------------|
C|------------------------------------------------|------------------------------------------------|
G|-X-----------5~---------------------------------|-X-----------3~---------------------------------|
D|------------------------------------------------|------------------------------------------------|

G|------------------------------------------------|------------------------------------------------|
D|------------------------------------------------|------------------------------------------------|
A|------------------------------------------------|------------------------------------------------|
D|-3~---------------------------------------------|------------------------------------------------|

F|------------------------------------------------|------------------------------------------------|
C|------------------------------------------------|------------------------------------------------|
G|-X-----------5~---------------------------------|-X-----------3~---------------------------------|
D|------------------------------------------------|------------------------------------------------|

G|------------------------------------------------|------------------------------------------------|
D|------------------------------------------------|------------------------------------------------|
A|------------------------------------------------|------------------------------------------------|
D|-3~---------------------------------------------|------------------------------------------------|

F|------------------------------------------------|------------------------------------------------|
C|------------------------------------------------|------------------------------------------------|
G|-X-----------5~---------------------------------|-X-----------3~---------------------------------|
D|------------------------------------------------|------------------------------------------------|

G|------------------------------------------------|------------------------------------------------|
D|------------------------------------------------|------------------------------------------------|
A|------------------------------------------------|------------------------------------------------|
D|-3~---------------------------------------------|------------------------------------------------|

F|------------------------------------------------|------------------------------------------------|
C|------------------------------------------------|------------------------------------------------|
G|-X-----------5~---------------------------------|-X-----------3~---------------------------------|
D|------------------------------------------------|------------------------------------------------|

G|------------------------------------------------|------------------------------------------------|
D|------------------------------------------------|------------------------------------------------|
A|------------------------------------------------|------------------------------------------------|
D|-3~----------------------------------5----------|-3~---------------------5------------8----------|


Chorus:

F|------------------------------------------------|------------------------------------------------|
C|------------------------------------------------|------------------------------------------------|
G|-------------------------------------3----------|-5----------------------------------------------|
D|-1----------------------------------------------|-------------------------------------3----------|

F|------------------------------------------------|------------------------------------------------|
C|------------------------------------------------|------------------------------------------------|
G|-0-----------------------------------2----------|-3-----------2-----------------------2----------|
D|------------------------------------------------|-------------------------3----------------------|

F|------------------------------------------------|------------------------------------------------|
C|------------------------------------------------|------------------------------------------------|
G|-------------------------------------3----------|-5----------------------------------------------|
D|-1----------------------------------------------|-------------------------------------3----------|

F|------------------------------------------------|------------------------------------------------|
C|------------------------------------------------|------------------------------------------------|
G|-0-----------------------------------2----------|-3-----------2-----------------------2----------|
D|------------------------------------------------|-------------------------3----------------------|

F|------------------------------------------------|------------------------------------------------|
C|------------------------------------------------|------------------------------------------------|
G|-------------------------------------3----------|-5----------------------------------------------|
D|-1----------------------------------------------|-------------------------------------3----------|

F|------------------------------------------------|------------------------------------------------|
C|------------------------------------------------|------------------------------------------------|
G|-0-----------------------------------2----------|-3-----------2-----------------------2----------|
D|------------------------------------------------|-------------------------3----------------------|

F|------------------------------------------------|------------------------------------------------|
C|------------------------------------------------|------------------------------------------------|
G|-------------------------------------3----------|-5----------------------------------------------|
D|-1----------------------------------------------|-------------------------------------3----------|

F|------------------------------------------------|------------------------------------------------|
C|------------------------------------------------|------------------------------------------------|
G|-0-----------------------------------2----------|-3-----------2-----------------------2----------|
D|------------------------------------------------|-------------------------3----------------------|


Outro:

F|------------------------------------------------|------------------------------------------------|
C|------------------------------------------------|------------------------------------------------|
G|------------------------------------------------|-5~---------------------------------------------|
D|-1~---------------------------------------------|------------------------------------------------|


F|------------------------------------------------|------------------------------------------------|
C|------------------------------------------------|------------------------------------------------|
G|------------------------------------------------|-3~---------------------------------------------|
D|-5~---------------------------------------------|------------------------------------------------|

F|------------------------------------------------|
C|------------------------------------------------|
G|------------------------------------------------|
D|------------------------------------------------|


----------
KEY -

DEAD NOTE - X
HOLD NOTE - ~
----------

Almost there ...

Sign in to get your own page with links to favourite songs and more. You are just one click away...

Login with Facebook Login with Google