Log in

One click and you are in

Login with Facebook Login with Google

Why sign up and log in

Guitar Tabs Explorer
The Neighbourhood bass tabs for Stargazing

Bass tabs

Tuning: Standard (E A D G)


Intro: (0:00)

G|----|
D|----|
A|----|
E|----|

Verse 1: (0:03) x4

G|--------------------------------------------------------|
D|5-5--5-5-5--5-5-5--5-5-5--5\----------------------------|
A|----------------------------3-3--3-3-3--3-3-3--3-3-3--3/|
E|--------------------------------------------------------|

G|----------------------------------------------3-3-----2-2-|
D|3-3--3-3-3--3-3-3--3-3-3--3\----------------------3-3-----|
A|----------------------------5-5--5-5-5--5-5-5-------------|
E|----------------------------------------------------------|


Chorus: (0:51) x2

G|----------------------------------------------------------------|
D|5-5-5-5-5-5-5-5-5-5-5-5-5-5-5-5\--------------------------------|
A|--------------------------------3-3-3-3-3-3-3-3-3-3-3-3-3-3-3-3/|
E|----------------------------------------------------------------|

G|----------------------------------------------------------------|
D|3-3-3-3-3-3-3-3-3-3-3-3-3-3-3-3\--------------------------------|
A|--------------------------------5-5-5-5-5-5-5-5-5-5-5-5-5-5-5-5/|
E|----------------------------------------------------------------|


Verse 2: (1:15) x2

G|--------------------------------------------------------|
D|5-5--5-5-5--5-5-5--5-5-5--5\----------------------------|
A|----------------------------3-3--3-3-3--3-3-3--3-3-3--3/|
E|--------------------------------------------------------|

G|----------------------------------------------3-3-----2-2-|
D|3-3--3-3-3--3-3-3--3-3-3--3\----------------------3-3-----|
A|----------------------------5-5--5-5-5--5-5-5-------------|
E|----------------------------------------------------------|


Pre-Chorus: (1:39)

G|---------------------------------------|
D|5~--------3~--------5~-----------------|
A|-----3~--------5~--------3~---5~-------|
E|---------------------------------------|


Chorus: (2:03) x2

G|----------------------------------------------------------------|
D|5-5-5-5-5-5-5-5-5-5-5-5-5-5-5-5\--------------------------------|
A|--------------------------------3-3-3-3-3-3-3-3-3-3-3-3-3-3-3-3/|
E|----------------------------------------------------------------|

G|----------------------------------------------------------------|
D|3-3-3-3-3-3-3-3-3-3-3-3-3-3-3-3\--------------------------------|
A|--------------------------------5-5-5-5-5-5-5-5-5-5-5-5-5-5-5-5/|
E|----------------------------------------------------------------|


Post-Chorus: (2:27) x2

G|----------------------------------------------------------------|
D|5-5-5-5-5-5-5-5-5-5-5-5-5-5-5-5\--------------------------------|
A|--------------------------------3-3-3-3-3-3-3-3-3-3-3-3-3-3-3-3/|
E|----------------------------------------------------------------|

G|----------------------------------------------------------------|
D|3-3-3-3-3-3-3-3-3-3-3-3-3-3-3-3\--------------------------------|
A|--------------------------------5-5-5-5-5-5-5-5-5-5-5-5-5-5-5-5/|
E|----------------------------------------------------------------|


Bridge: (2:51) x2

G|----------------------------------------------------------------|
D|------------------------------------------------3-3-3-3-3-3-3-3\|
A|1-1-1-1-1-1-1-1/3-3-3-3-3-3-3-3/5-5-5-5-5-5-5-5/----------------|
E|----------------------------------------------------------------|


Outro: (3:15)

G|-------------------------------------------------------------------------|
D|----------------------------------------------------------------3~-------|
A|1-1-1-1-1-1-1-1/3-3-3-3-3-3-3-3\----------------3-3-3-3-3-3-3-3/---------|
E|--------------------------------3-3-3-3-3-3-3-3/-------------------------|


************************************

| \ Slide down
| / Slide up
| ~ Vibrato

************************************

Almost there ...

Sign in to get your own page with links to favourite songs and more. You are just one click away...

Login with Facebook Login with Google