Log in

One click and you are in

Login with Facebook Login with Google

Why sign up and log in

Guitar Tabs Explorer
The Neighbourhood bass tabs for Single

Bass tabs

Tuning: Standard (E A D G)

Difficulty: Novice
Intro:
rest


Verse:
G|-----------|-----------|-----------|-----------|
D|------3----|------3----|------3----|------3----|
A|-1-5----3--|-1-5----3--|-1-5----3--|-1-5----3--|
E|-----------|-----------|-----------|-----------|


Pre-Chorus:
G|-----------|-----------|-----------|-----------|
D|---3---1---|---3---1–--|---3---1---|---3---1---|
A|-5---3-----|-5---3-----|-5---3-----|-5---3-----|
E|-----------|-----------|-----------|-----------|


Chorus:
G|-----------|-----------|-----------|-----------|
D|---3---1---|---3---1–--|---3---1---|---3---1---|
A|-5---3-----|-5---3-----|-5---3-----|-5---3-----|
E|-----------|-----------|-----------|-----------|


Verse:
G|-----------|-----------|-----------|-----------|
D|---3---1---|---3---1–--|---3---1---|---3---1---|
A|-5---3-----|-5---3-----|-5---3-----|-5---3-----|
E|-----------|-----------|-----------|-----------|


Pre-Chorus:
G|-----------|-----------|-----------|-----------|
D|---3---1---|---3---1–--|---3---1---|---3---1---|
A|-5---3-----|-5---3-----|-5---3-----|-5---3-----|
E|-----------|-----------|-----------|-----------|


Chorus:
G|-----------|-----------|-----------|-----------|
D|---3---1---|---3---1–--|---3---1---|---3---1---|
A|-5---3-----|-5---3-----|-5---3-----|-5---3-----|
E|-----------|-----------|-----------|-----------|


Bridge:
G|-----------|-----------|-----------|-----------| x2
D|--3--------|--3--------|--3--------|--3--------|
A|-3--1--1-1-|-3--1--1-1-|-3--1--1-1-|-3--1-1-1-0|
E|-----------|-----------|-----------|-----------|


Chorus:
G|-----------|-----------|-----------|-----------|
D|---3---1---|---3---1–--|---3---1---|---3---1---|
A|-5---3-----|-5---3-----|-5---3-----|-5---3-----|
E|-----------|-----------|-----------|-----------|


Outro:
“Your baby she’s mine...”
G|-----------|-----------|-----------|-----------|
D|--3--------|--3--------|--3--------|--3--------|
A|-3--1--1-1-|-3--1--1-1-|-3--1--1-1-|-3--1-1-1-0|
E|-----------|-----------|-----------|-----------|

Almost there ...

Sign in to get your own page with links to favourite songs and more. You are just one click away...

Login with Facebook Login with Google