Log in

One click and you are in

Login with Facebook Login with Google

Why sign up and log in

Guitar Tabs Explorer
The Neighbourhood guitar tabs for Say my name cry me a river

Say My Name Cry Me A River tab by The Neighbourhood

The Neighbourhood guitar tabs for Say my name cry me a river

Guitar tabs

Tuning: Standard (E A D G B E)

Difficulty: Intermediate

e|------------------------------------------|
B|------------------------------------------|
G|------------------------------------------|
D|---10--8----------------------------------|
A|------------11--8-------------------------|
E|---------------------9---6---8------------| x4

e|---------------9-----6-----8-----8----9----6------------------|
B|-13---14-13----9-----6-----8-----9----9----6------------------|
G|---------------10----6-----9-----10---10---6------------------|
D|---------------11----8-----10----10---11---8------------------|
A|---------------11----8-----10----8----11---8-------7--10------|
E|---------------9-----6-----8----------9----6----8-------------|
                A chord diagramC#C#     A chord diagramA#mA#m   A chord diagramC majorC     A chord diagramF minorFm   A chord diagramC#C#   A chord diagramA#mA#m

e|----8-----8-----4----4----------|---8------8----4----------------|
B|----9-----6-----6----4----4---8-|---9------6----6-----6----8-----|
G|----10----6-----6----5----------|---10-----6----6----------------|
D|----10----6-----6----6----------|---10-----6----6----------------|
A|----8-----8-----4----6----------|---8------8----4----------------|
E|---------------------4----------|--------------------------------|
      A chord diagramF minorFm    A chord diagramD#D#    A chord diagramC#C#   A chord diagramG#G#         x3  A chord diagramF minorFm     A chord diagramD#D#   A chord diagramC#C#

e|---------------9-----6-----8-----8----9----6----8--------|
B|-13---14-13----9-----6-----8-----9----9----6----8--------|
G|---------------10----6-----9-----10---10---6----9--------|
D|---------------11----8-----10----10---11---8----10-------|
A|---------------11----8-----10----8----11---8----10-------|
E|---------------9-----6-----8----------9----6----8--------|
                A chord diagramC#C#     A chord diagramA#mA#m   A chord diagramC majorC     A chord diagramF minorFm   A chord diagramC#C#   A chord diagramA#mA#m  A chord diagramC majorC

e|--------------pb8--13--11--9--8-h9p8------pb8-------|
B|-13---14-13-----------------------------------------|
G|----------------------------------------------------|
D|----------------------------------------------------|
A|----------------------------------------------------|
E|----------------------------------------------------|

e|---------------9-----6-----8-----8----9----6----8--------|
B|-13---14-13----9-----6-----8-----9----9----6----8--------|
G|---------------10----6-----9-----10---10---6----9--------|
D|---------------11----8-----10----10---11---8----10-------|
A|---------------11----8-----10----8----11---8----10-------|
E|---------------9-----6-----8----------9----6----8--------|
                A chord diagramC#C#     A chord diagramA#mA#m   A chord diagramC majorC     A chord diagramF minorFm   A chord diagramC#C#   A chord diagramA#mA#m  A chord diagramC majorC

e|------------------13--11--9--8-h9p8------pb8--------|
B|-13---14-13-----------------------------------------|
G|----------------------------------------------------|
D|----------------------------------------------------|
A|----------------------------------------------------|
E|----------------------------------------------------|

e|---------------9-----6-----8-----8----9----6----8--------|
B|-13---14-13----9-----6-----8-----9----9----6----8--------|
G|---------------10----6-----9-----10---10---6----9--------|
D|---------------11----8-----10----10---11---8----10-------|
A|---------------11----8-----10----8----11---8----10-------|
E|---------------9-----6-----8----------9----6----8--------|
                A chord diagramC#C#     A chord diagramA#mA#m   A chord diagramC majorC     A chord diagramF minorFm   A chord diagramC#C#   A chord diagramA#mA#m  A chord diagramC majorC

e|---8-----9------6----8----8----9----6----8-----|
B|---9-----9------6----8----9----9----6----8-----|
G|---10----10-----6----9----10---10---6----9-----|
D|---10----11-----8----10---10---11---8----10----|
A|---8-----11-----8----10---8----11---8----10----|
E|---------9------6----8---------9----6----8-----|
    A chord diagramF minorFm     A chord diagramC#C#    A chord diagramA#mA#m   A chord diagramC majorC    A chord diagramF minorFm   A chord diagramC#C#   A chord diagramA#mA#m  A chord diagramC majorC

e|----8-----8-----4----4----------|---8------8----4---13--11--9----|
B|----9-----6-----6----4----4---8-|---9------6----6----------------|
G|----10----6-----6----5----------|---10-----6----6----------------|
D|----10----6-----6----6----------|---10-----6----6----------------|
A|----8-----8-----4----6----------|---8------8----4----------------|
E|---------------------4----------|--------------------------------|
      A chord diagramF minorFm    A chord diagramD#D#    A chord diagramC#C#   A chord diagramG#G#             A chord diagramF minorFm     A chord diagramD#D#   A chord diagramC#C#

e|--8-h9p8-------9-----6-----8-----8----9----6----8--------|
B|---------------9-----6-----8-----9----9----6----8--------|
G|---------------10----6-----9-----10---10---6----9--------|
D|---------------11----8-----10----10---11---8----10-------|
A|---------------11----8-----10----8----11---8----10-------|
E|---------------9-----6-----8----------9----6----8--------|x2
                 A chord diagramC#C#    A chord diagramA#mA#m   A chord diagramC majorC     A chord diagramF minorFm   A chord diagramC#C#   A chord diagramA#mA#m  A chord diagramC majorC

or


e|--8--h9p8----pb8---8-h9p8----13--11--9-------|
B|---------------------------------------------|
G|---------------------------------------------|
D|---------------------------------------------|
A|---------------------------------------------|
E|---------------------------------------------|x2

e|--------------------------------|
B|--------------------------------|
G|--------------------------------|
D|--8--6--8--6--8--6--8--6--------|
A|---------------------------8----|
E|--------------------------------|x2

or

e|--8--h9p8----pb8---8-h9p8----13--11--9-------|
B|---------------------------------------------|
G|---------------------------------------------|
D|---------------------------------------------|
A|---------------------------------------------|
E|---------------------------------------------|


e|---------------------------------------------------------------------------|
B|---------------------------------------------------------------------------|
G|--6--5----6--5---6--5----6--5------6--5----6--5---6--5---------------------|
D|--8--6----8--6---8--6----8--6------8--6----8--6---8--6------8--------------|
A|-------------------------------8-------------------------8--8--------------|
E|---------------------------------------------------------------------------|

or

e|--8--h9p8--------------------13--11--9-------|
B|---------------------------------------------|
G|---------------------------------------------|
D|---------------------------------------------|
A|---------------------------------------------|
E|---------------------------------------------|


e|--8-h9p8-------9-----6-----8-----8----9----6----8--------|
B|---------------9-----6-----8-----9----9----6----8--------|
G|---------------10----6-----9-----10---10---6----9--------|
D|---------------11----8-----10----10---11---8----10-------|
A|---------------11----8-----10----8----11---8----10-------|
E|---------------9-----6-----8----------9----6----8--------|
                 A chord diagramC#C#    A chord diagramA#mA#m   A chord diagramC majorC     A chord diagramF minorFm   A chord diagramC#C#   A chord diagramA#mA#m  A chord diagramC majorC

e|--8--h9p8----pb8---|
B|-------------------|
G|-------------------|
D|-------------------|
A|-------------------|
E|-------------------|


e|---------------------------------------------------------------------------|
B|---------------------------------------------------------------------------|
G|-----------------------5--------------------------------------------5------|
D|--------5-6--5---------6---8--8-6---6--8/10--8--6------5-6--5-------6------|
A|---8-8---------8--3-4--4----------8----------------8-8--------8-3-4-4------|
E|---------------------------------------------------------------------------|

e|--13--13--11--11-8--|
B|--------------------|
G|--------------------|
D|--------------------|
A|--------------------|
E|--------------------|


e|-------------------------8---8---------------------------------------------|
B|--------8-9--8-----------9-----9h11--9----9--11^--pb11--9----------8--9--8-|
G|-10--10--------10--------10------------10------------------10--10----------|
D|------------------10-11--10------------------------------------------------|
A|---------------------------------------------------------------------------|
E|---------------------------------------------------------------------------|

e|-------------8---8---------------------------------------------------------|
B|-------------9---9---------------------------------------------------------|
G|--10---------10--10--------------------------------------------------------|
D|-----10--11--10--10--------------------------------------------------------|
A|---------------------------------------------------------------------------|
E|---------------------------------------------------------------------------|

or

e|--8--h9p8----pb8-----pb8---13---11--9--8--h9--8---|
B|--------------------------------------------------|
G|--------------------------------------------------|
D|--------------------------------------------------|
A|--------------------------------------------------|
E|--------------------------------------------------|


************************************

| h   Hammer-on
| p   Pull-off
| pb  Pre-bend
| /   Slide up


************************************

Other versions of Say My Name Cry Me A River

Say my name cry me a riverChords

Almost there ...

Sign in to get your own page with links to favourite songs and more. You are just one click away...

Login with Facebook Login with Google