Log in

One click and you are in

Login with Facebook Login with Google

Why sign up and log in

Guitar Tabs Explorer
The Neighbourhood bass tabs for Say my name / cry me a river

Say My Name / Cry Me A River bass tab by The Neighbourhood

The Neighbourhood bass tabs for Say my name / cry me a river

Bass tabs

Say My Name/Cry Me A River - The Neighbourhood

Say my name chorus & verse
G ---5--3----------------------
D ---------6--3----------------
A ------------------4----------	x8
E ------------------------6----

Say my name bridge
G ---5--3----------------------------------------------------------------------------
D ---------6--3----------------------3-----------------------3-----------------------
A ------------------6-----4----------------6-----4-----------------6-----4-----------
E ------------------------------4----------------------4-----------------------4-----

G -------------------------------------------------------------------
D ---3-----------------------3-----------------------3---------------
A ---------6-----4-----------------6-----4-----------------4---------
E ---------------------4-----------------------4-----------------6---

Say my name chorus & Cry me a river verse
G ---5--3----------------------
D ---------6--3----------------
A ------------------4----------	x7
E ------------------------6----

Cry me a river bridge
G ---5--3--------------------------------------------------------------------
D ---------6--3----------------------3-----------------------3---------------
A ------------------6-----4----------------6-----4-----------------4---------
E ------------------------------4----------------------4-----------------6---

Choruses
G ---5--3----------------------
D ---------6--3----------------
A ------------------4----------	x14
E ------------------------6----

Almost there ...

Sign in to get your own page with links to favourite songs and more. You are just one click away...

Login with Facebook Login with Google