Log in

One click and you are in

Login with Facebook Login with Google

Why sign up and log in

Guitar Tabs Explorer
The Neighbourhood guitar tabs for Prey

Solo tabs

-------------------------------------------------------------------------------
                             PREY - The Neighbourhood
-------------------------------------------------------------------------------
Tabbed by: Charlie
E-mail: spottyjaguar.123.com

If you find an error, please let me know so I can fix it! Thankyou~
Tuning: Standard


Verse

As long as you notice...

(Synth - hold notes)
G|-14--------------12-----9/10---8/9-----------9p7---------------------------|
D|---------------------------------------------------7~~~~~~~~7--9--10-------|
A|---------------------------------------------------------------------------|
E|---------------------------------------------------------------------------|

G|-9--------7-------9--10----------------------------------------------------|
D|-------------------------9-7-----------10----------------------------------|
A|---------------------------------------------------------------------------|
E|---------------------------------------------------------------------------|


Actual bass starts- this twice                     1st time                2nd time
G|----------------------------------------[----------------------------]-[----------]-|
D|-----------------------------2----------[----------------------------]-[----------]-|
A|-5--5-----5--5----5----5--3-----0---0---[--0--2-3---3-----3----------]-[-0--------]-|
E|----------------------------------------[-----------------------3---3]-[-----3----]-|


Chorus

Something is wrong...

G|------------------------------------------|          G|----------------2-------2-----------------|
D|-3---------0------------------------------|          D|-0-------3--------------------------------|
A|---------------------0---------0-----3----|x3, then  A|------------------------------------------|
E|------------------------------------------|          E|------------------------------------------|

Repeat entire verse- including synth

Chorus

G|---------------------------------------------------------2-------2-------5-|
D|-3-------0--------------------------------0-----3--------------------------|
A|-------------------0-------0----3------------------------------------------|
E|---------------------------------------------------------------------------|


G|------------------------------------------------5--------------------------|
D|-3---------3/12-------12-12-10-7---------7--------------0----------3-------|
A|---------------------------------------------------------------------------|
E|---------------------------------------------------------------------------|

G|------------------5-------7-------9-|
D|-3/7-------7------------------------|
A|------------------------------------|
E|------------------------------------|


Bridge

If I run...

G|-------------------------------------------------------7---7---5-----------|
D|-5-----7------------------5------7----------------------------------7---5--|
A|------------8-----------------------------5--------------------------------|
E|---------------------------------------------------------------------------|x2


Chorus

G|---------------------------------------------------------2-------2-------5-|
D|-3-------0--------------------------------0-----3--------------------------|
A|-------------------0-------0----3------------------------------------------|
E|---------------------------------------------------------------------------|


G|------------------------------------------------5--------------------------|
D|-3---------3/12-------12-12-10-7---------7--------------0----------3-------|
A|---------------------------------------------------------------------------|
E|---------------------------------------------------------------------------|

G|-------------------5-------------------2-|
D|-3/7-------7--------------0-----3--------|
A|-----------------------------------------|
E|-----------------------------------------|

Last verse:

G|----------------------------------------[----------------------------]-[----------]-|
D|-----------------------------2----------[----------------------------]-[----------]-|
A|-5--5-----5--5----5----5--3-----0---0---[--0--2-3---3-----3----------]-[-0--------]-|
E|----------------------------------------[-----------------------3---3]-[-----3----]-|x2


Outro

I don't wanna fight...

G|--------------------------|
D|-3------0-----3------0----|
A|--------------------------|
E|--------------------------|x2


| /  slide up
| \  slide down
| h  hammer-on
| p  pull-off
| ~  vibrato
| +  harmonic
| x  Mute note

Other versions of Prey

PreyChords
Prey (Ver. 2)Chords
PreyTabs
Prey introTabs

Almost there ...

Sign in to get your own page with links to favourite songs and more. You are just one click away...

Login with Facebook Login with Google