Log in

One click and you are in

Login with Facebook Login with Google

Why sign up and log in

Guitar Tabs Explorer
The Neighbourhood guitar chords for Paradise

Guitar chords with lyrics

Intro:


    A chord diagramE minorEm                           A chord diagramFF
e|---------------------------------------|
B|---0---------0---------0---------1-----|
G|-----0---------0---------0---------2---|
D|-------2---------2---------2---------3-| x2
A|---------------------------------------|
E|-0---------0---------0---------1-------|


Verse:
   A chord diagramB minorBm
e|---------------------------------2-----|
B|---3---------3---------3-----------3---|
G|-----4---------4---------4-----------4-|
D|-------4---------4---------4-----------|
A|-2---------2---------2---------2-------|
E|---------------------------------------|


    A chord diagramA major 6A6
e|-------------2-------------------2-----|
B|---2-----------2-------2-----------2---|
G|-----2-----------2-------2-----------2-|
D|-------2-------------------2-----------|
A|-0---------0---------0---------0-------|
E|---------------------------------------|

   A chord diagramG6G6                  A chord diagramF#F#        A chord diagramA major 6A6
e|-------------0-------------------2-----|
B|---0-----------0-------------------2---|
G|-----0-----------0-----3-------------2-|
D|-------0-----------------4-------------|
A|---------------------------4---0-------|
E|-3---------3---------2-----------------|


    A chord diagramB minorBm
No matter where you go,


        A chord diagramA major 6A6
you’ll never have control


                A chord diagramG6G6
No one makes it out alive,


                A chord diagramF#F#            A chord diagramA major 6A6
no one makes it out alive in paradise


 A chord diagramB minorBm
Picture you in summertime,


                          A chord diagramA major 6A6
drinkin' white wine in Antigua


                                 A chord diagramG6G6
Told me that you’ll see me and I see ya


                      A chord diagramF#F#         A chord diagramA major 6A6
And I really wanna believe ya, I do


  A chord diagramB minorBm
Singin' blues, no shoes on


                                          A chord diagramA major 6A6
Strummin' in the sun and you’ve got your feet up


                                                          A chord diagramG6G6
I remember when you used to tell me that you’d find your freedom


                  A chord diagramF#F#    A chord diagramA major 6A6
It was hard to believe ya




Pre-chorus 1:
   A chord diagramE minorEm                  A chord diagramF# minorF#m       A chord diagramA majorA
e|---------------------------------------|
B|---0---------0-------------------2-----|
G|-----0---------0-------2-----------2---|
D|-------2---------2-------4-----------2-|
A|-2---------2---------------4---0-------|
E|---------------------2-----------------|


   A chord diagramB minorBm                  A chord diagramF# minorF#m
e|---------------------------------------|
B|---3---------3-------------------------|
G|-----4---------4-------2---------2-----|
D|-------4---------4-------4---------4---|
A|-2---------2---------------4---------4-|
E|---------------------2---------2-------|


   A chord diagramE minorEm                  A chord diagramF# minorF#m       A chord diagramA majorA
e|---------------------------------------|
B|---0---------0-------------------2-----|
G|-----0---------0-------2-----------2---|
D|-------2---------2-------4-----------2-|
A|-2---------2---------------4---0-------|
E|---------------------2-----------------|


            A chord diagramE minorEm
'Cause you never feel enough,


     A chord diagramF# minorF#m           A chord diagramA majorA
it never fills you up


    A chord diagramB minorBm
And if lyin' on an island is 


    A chord diagramF# minorF#m
the closest that you’ll come


      A chord diagramE minorEm                 A chord diagramF# minorF#m   A chord diagramA majorA
Then run, go ahead, have fun, run



Chorus:

 A chord diagramB minorBm
No matter where you go (Doesn't matter where you go)


        A chord diagramA major 6A6
You’ll never have control (No, no, no, no)


                 A chord diagramG6G6
Woke up feeling paralyzed (Yeah)


                A chord diagramF#F#
No one makes it out alive (Yeah)


   A chord diagramA major 6A6
In paradise (Yeah)



Verse 2:

 A chord diagramB minorBm
Picture me in the major leagues


                            A chord diagramA major 6A6
Livin' in a dream that I created, mhm


                                                 A chord diagramG6G6
I wrote my own books so I never had to read your pages


             A chord diagramF#F#               A chord diagramA major 6A6
I’ve got no patience for that anyway


   A chord diagramB minorBm
Sensations don’t mean anything


If I can just have everything

      A chord diagramA major 6A6
Some days I think I’ll run away


                          A chord diagramG6G6
What would I even do if I made it?


                A chord diagramF#F#      A chord diagramA major 6A6
I just keep on fading 'cause



Pre-chorus 2:

    A chord diagramE minorEm                   A chord diagramF# minorF#m           A chord diagramA majorA
I never feel enough, it never fills me up


      A chord diagramB minorBm
I’m climbin' up a giant rock,


      A chord diagramF# minorF#m
I’ll never reach the top


       A chord diagramE minorEm           A chord diagramF# minorF#m         A chord diagramA majorA
But I can’t stop, I can’t stop, so



Chorus:

 A chord diagramB minorBm
No matter where you go (Doesn't matter where you go)


        A chord diagramA major 6A6
You’ll never have control (No, no, no, no)


                 A chord diagramG6G6
Woke up feeling paralyzed (Yeah)


                A chord diagramF#F#
No one makes it out alive (Yeah)


   A chord diagramA major 6A6
In paradise (Yeah)


  A chord diagramG6G6
Paralyzed (Yeah)


                A chord diagramF#F#                   A chord diagramA major 6A6
No one makes it out alive (Yeah) in paradise (Yeah)



Outro:

A chord diagramE minorEm A chord diagramE minorEm A chord diagramE minorEm A chord diagramFF
(Like in intro)

Other versions of Paradise

Paradise ukuleleChords

Almost there ...

Sign in to get your own page with links to favourite songs and more. You are just one click away...

Login with Facebook Login with Google