Log in

One click and you are in

Login with Facebook Login with Google

Why sign up and log in

Guitar Tabs Explorer
The Neighbourhood guitar tabs for Let it go

Guitar tabs

-------------------------------------------------------------------------------
                             LET IT GO - The Neighbourhood
-------------------------------------------------------------------------------
Tabbed by: Ryan
E-mail: ryan9478@gmail.com
I only figured out a few parts of the song by watching this performance on
Letterman but I thought I'd share what I know.

Tuning: Whole Step Down
Play verse with Tremelo or echo
Play chorus with heavy distortion/arena echo
Play along with song for Rythym/strumming patterns

Rythym Verse (From a little city with expensive taste)
e|---------------------------------------------------------------------------|
B|--------11---------------11-13---------------------------------------------|
G|----------12---------------------------------------------------------------|
D|-----12-------(x3)-----12--------------------------------------------------|
A|--10----------------10-----------------------------------------------------|
E|---------------------------------------------------------------------------|

Chorus
e|--15-15-15-15-15-15-15-15-15-15-15-15-15-15-15-----------------------------|
B|---------------------------------------------------------------------------|
G|---------------------------------------------------------------------------| (x2)
D|---------------------------------------------------------------------------|
A|---------------------------------------------------------------------------|
E|---------------------------------------------------------------------------|
  Remember What The People Said

e|--18-18-18-18-18-18-18-18-20-20-20-20-20-20-20-20-20-15-15-15-15-15-15-15--|
B|---------------------------------------------------------------------------|
G|---------------------------------------------------------------------------|
D|---------------------------------------------------------------------------|
A|---------------------------------------------------------------------------|
E|---------------------------------------------------------------------------|
  When It's Said And Done/ Let It Go


Bridge
e|--5------------------------------------------------------------------------|
B|--5------------------------------------------------------------------------|
G|--6------------------------------------------------------------------------|
D|--7------------------------------------------------------------------------|
A|--7------------------------------------------------------------------------|
E|--5------------------------------------------------------------------------|
     If What They Said...

e|-----------5--3-------------3----------------------------------------------|
B|-----------6--5-------------3----------------------------------------------|
G|-----------7--5-------------4----------------------------------------------|
D|-----------7--5-------------5----------------------------------------------|  (x2)
A|-----------5--3-------------5----------------------------------------------|
E|-----------5--3-------------3----------------------------------------------|
  Listening.     And I was listening

So try it out and please give feedback. It helps.

Other versions of Let It Go

Let it goChords

Almost there ...

Sign in to get your own page with links to favourite songs and more. You are just one click away...

Login with Facebook Login with Google