Log in

One click and you are in

Login with Facebook Login with Google

Why sign up and log in

Guitar Tabs Explorer
The Neighbourhood guitar tabs for Flawless

Guitar tabs

Intro: and Verse:
e|---------------------------------------------------------------------------|
B|---------------------------------------------------------------------------|
G|--7-7-7-7-10-10-10-10---------------10-------------------------------------|
D|--7-7-7-7-11-11-11-11-5-5-5-5-5-5-5-11-------------------------------------|
A|--5-5-5-5-11-11-11-11-5-5-5-5-5-5-5-11-------------------------------------|
E|----------9--9--9--9--3-3-3-3-3-3-3-9--------------------------------------|
Chorus: Strum Like Chords
e|---------------------------------------------------------------------------|
B|---------------------------------------------------------------------------|
G|--7---10-------------------------------------------------------------------|
D|--7---11---5---------------------------------------------------------------|
A|--5---11---5---------------------------------------------------------------|
E|------9----3---------------------------------------------------------------|


Bridge:
When I add it all up...
e|---------------------------------------------------------------------------|
B|---------------------------------------------------------------------------|
G|--------------7------------------------------------------------------------|
D|--5-----3-----7-x8--11-----------------------------------------------------|
A|--5-x8--3-x8--5-----11-x8--------------------------------------------------|
E|--3-----1-----------9------------------------------------------------------|

Guitar solo:
e|---------------------------------------------------------------------------|
B|---------------------------------------------------------------------------|
G|-----10-12-12 10 12 10 12-12b-10-12------10-12-12-10-12-10-12-10-----------|
D|--12----------------------------------12-----------------------------------| x2
A|---------------------------------------------------------------------------|
E|---------------------------------------------------------------------------|


************************************

| x  Dead note
| b  Bend

Other versions of Flawless

FlawlessChords

Almost there ...

Sign in to get your own page with links to favourite songs and more. You are just one click away...

Login with Facebook Login with Google