Log in

One click and you are in

Login with Facebook Login with Google

Why sign up and log in

Guitar Tabs Explorer
The Neighbourhood bass tabs for Flawless

Bass tabs

Tuning: Drop D (D A D G)

Key: Dm

Difficulty: Novice

Arist : The Neighbourhood
Album : I Love You
Song : Flawless

Use a pick to get a better sound
Intro: (0:04)

G|----------------|----------------|----------------|----------------|
D|----------------|----------------|----------------|----------------|
A|5-r-5-r-5-r-5-r-|3-r-3-r-3-r-3-r-|----------------|------------3---|
D|----------------|----------------|5-r-5-r-5-r-5-r-|5-r-5-r-5-r-----|
  1 + 2 + 3 + 4 +
G|----------------|----------------|----------------|----------------|
D|----------------|----------------|----------------|-------/7-------|
A|5-r-5-r-5-r-5-r-|3-r-3-r-3-r-3-r-|----------------|------------8---|
D|----------------|----------------|5-r-5-r-5-r-5-r-|5-r-5-r---------|


Verse:

G|----------------|----------------|----------------|----------------|
D|----------------|----------------|----------------|----------------|
A|5-r-5-r-5-r-5-r-|3-r-3-r-3-r-3-r-|----------------|------------3---|
D|----------------|----------------|5-r-5-r-5-r-5-r-|5-r-5-r-5-r-----|

G|----------------|----------------|----------------|----------------|
D|----------------|----------------|----------------|----------------|
A|5-r-5-r-5-r-5-r-|3-r-3-r-3-r-3-r-|----------------|----------------|
D|----------------|----------------|5-r-5-r-5-r-5-r-|----------------|

G|----------------|----------------|----------------|----------------|
D|----------------|----------------|----------------|----------------|
A|5-r-5-r-5-r-5-r-|3-r-3-r-3-r-3-r-|----------------|------------3---|
D|----------------|----------------|5-r-5-r-5-r-5-r-|5-r-5-r-5-r-----|

G|----------------|----------------|----------------|----------------|----------------|
D|----------------|----------------|----------------|----------------|----------------|
A|5-r-5-r-5-r-5-r-|3-r-3-r-3-r-3-r-|----------------|----------------|----------------|
D|----------------|----------------|5---------------|----------------|----------------|


Chorus:

G|----------------|----------------|----------------|----------------|
D|----------------|----------------|----------------|----------------|
A|5---------------|3---------------|----------------|----------------| (x4)
E|----------------|----------------|5---------------|5-------5-------|


Verse:

G|----------------|----------------|----------------|----------------|
D|----------------|----------------|----------------|----------------|
A|5-r-5-r-5-r-5-r-|3-r-3-r-3-r-3-r-|----------------|------------3---|
D|----------------|----------------|5-r-5-r-5-r-5-r-|5-r-5-r-5-r-----|

G|----------------|----------------|----------------|----------------|
D|----------------|----------------|----------------|----------------|
A|5-r-5-r-5-r-5-r-|3-r-3-r-3-r-3-r-|----------------|----------------|
D|----------------|----------------|5-r-5-r-5-r-5-r-|5-r-5-r---------|

G|----------------|----------------|----------------|----------------|
D|----------------|----------------|----------------|----------------|
A|5-r-5-r-5-r-5-r-|3-r-3-r-3-r-3-r-|----------------|------------3---|
D|----------------|----------------|5-r-5-r-5-r-5-r-|5-r-5-r-5-r-----|

G|----------------|----------------|----------------|----------------|----------------|
D|----------------|----------------|----------------|----------------|----------------|
A|5-r-5-r-5-r-5-r-|3-r-3-r-3-r-3-r-|----------------|----------------|----------------|
D|----------------|----------------|----------------|----------------|----------------|


Chorus:

G|----------------|----------------|----------------|----------------|
D|----------------|----------------|----------------|----------------|
A|5---------------|3---------------|----------------|----------------| (x2)
D|----------------|----------------|5---------------|5-------5-------|

G|----------------|----------------|----------------|----------------|
D|----------------|----------------|----------------|----------------|
A|5---5---5---5---|3---3---3---3---|----------------|----------------|
D|----------------|----------------|5---5---5---5---|5---5---5---5---|

G|----------------|----------------|----------------|----------------|
D|----------------|----------------|----------------|----------------|
A|5---5---5---5---|3---3---3---3---|----------------|----------------|
D|----------------|----------------|5---5---5---5---|5---5---r-------|


Bridge:

G|----------------|----------------|----------------|----------------|
D|----------------|----------------|----------------|----------------|
A|----------------|----------------|----------------|3---3---3---3---| (x3)
D|5---5---5---5---|3---3---3---3---|0---0---0---0---|----------------|

G|----------------|----------------|----------------|----------------|----------------|
D|----------------|----------------|----------------|----------------|----------------|
A|----------------|----------------|----------------|3---------------|----------------|
D|5---5---5---5---|3---3---3---3---|0---0---0---0---|----------------|----------------|


Chorus:

G|----------------|----------------|----------------|----------------|
D|----------------|----------------|----------------|----------------|
A|5---------------|3---------------|----------------|----------------| (x2)
D|----------------|----------------|5---------------|5-------5-------|

G|----------------|----------------|----------------|----------------|
D|----------------|----------------|----------------|----------------|
A|5---5---5---5---|3---3---3---3---|----------------|----------------| (x2)
D|----------------|----------------|5---5---5---5---|5---5---5---5---|

G|----------------|----------------|----------------|----------------|
D|----------------|----------------|----------------|----------------|
A|5-5-5-5-5-5-5-5-|3-3-3-3-3-3-3-3-|----------------|----------------| (x2)
D|----------------|----------------|5-5-5-5-5-5-5-5-|5-5-5-5-5-5-5-5-|

G|----------------||
D|----------------||
A|5---------------||
D|----------------||

************************************

| r   Release
| /   Slide up

************************************

Almost there ...

Sign in to get your own page with links to favourite songs and more. You are just one click away...

Login with Facebook Login with Google