Log in

One click and you are in

Login with Facebook Login with Google

Why sign up and log in

Guitar Tabs Explorer
The Neighbourhood bass tabs for Daddy issues

Bass tabs

Tuning: Standard (E A D G)

Difficulty: Novice


Intro:

G|---------------------------------------------------------------|
D|---------------------------------------------------------------|
A|-3-------------------------------------------------------------|
E|---------------------------------------------------------------|
   1   e   +   a   2   e   +   a   3   e   +   a   4   e   +   a
G|---------------------------------------------------------------|
D|---------------------------------------------------------------|
A|---------------------------------------------------------------|
E|-3-------------------------------------------------------------|
   1   e   +   a   2   e   +   a   3   e   +   a   4   e   +   a
G|---------------------------------------------------------------|
D|---------------------------------------------------------------|
A|---------------------------------------------------------------|
E|-6-------------------------------------------------------6-----|
   1   e   +   a   2   e   +   a   3   e   +   a   4   e   +   a
G|---------------------------------------------------------------|
D|---------------------------------------------------------------|
A|---------------------------------------------------------------|
E|-----------------------------------------3     /     6---------|
   1   e   +   a   2   e   +   a   3   e   +   a   4   e   +   a
G|---------------------------------------------------------------|
D|---------------------------------------------------------------|
A|-3-------------------------------------------------------------|
E|---------------------------------------------------------------|
   1   e   +   a   2   e   +   a   3   e   +   a   4   e   +   a
G|---------------------------------------------------------------|
D|---------------------------------------------------------------|
A|---------------------------------------------------------------|
E|-3-------------------------------------------------------------|
   1   e   +   a   2   e   +   a   3   e   +   a   4   e   +   a
G|---------------------------------------------------------------|
D|---------------------------------------------------------------|
A|---------------------------------------------------------------|
E|-6-------------------------------------------------------6-----|
   1   e   +   a   2   e   +   a   3   e   +   a   4   e   +   a
G|---------------------------------------------------------------|
D|---------------------------------------------------------------|
A|---------------------------------------------------------------|
E|---------------------------------------------------------------|
   1   e   +   a   2   e   +   a   3   e   +   a   4   e   +   a

Verse 1:

G|---------------------------------------------------------------|
D|---------------------------------------------------------------|
A|---------------------------------------------------------------|
E|---------------------------------------------------------------|
   1   e   +   a   2   e   +   a   3   e   +   a   4   e   +   a
G|---------------------------------------------------------------|
D|---------------------------------------------------------------|
A|---------------------------------------------------------------|
E|---------------------------------------------------------------|
   1   e   +   a   2   e   +   a   3   e   +   a   4   e   +   a
G|---------------------------------------------------------------|
D|---------------------------------------------------------------|
A|---------------------------------------------------------------|
E|---------------------------------------------------------------|
   1   e   +   a   2   e   +   a   3   e   +   a   4   e   +   a
G|---------------------------------------------------------------|
D|---------------------------------------------------------------|
A|---------------------------------------------------------------|
E|---------------------------------------------------------------|
   1   e   +   a   2   e   +   a   3   e   +   a   4   e   +   a
G|---------------------------------------------------------------|
D|---------------------------------------------------------------|
A|---------------------------------------------------------------|
E|---------------------------------------------------------------|
   1   e   +   a   2   e   +   a   3   e   +   a   4   e   +   a
G|---------------------------------------------------------------|
D|---------------------------------------------------------------|
A|---------------------------------------------------------------|
E|---------------------------------------------------------------|
   1   e   +   a   2   e   +   a   3   e   +   a   4   e   +   a
G|---------------------------------------------------------------|
D|---------------------------------------------------------------|
A|---------------------------------------------------------------|
E|---------------------------------------------------------------|
   1   e   +   a   2   e   +   a   3   e   +   a   4   e   +   a
G|---------------------------------------------------------------|
D|---------------------------------------------------------------|
A|---------------------------------------------------------------|
E|---------------------------------------------------------------|
   1   e   +   a   2   e   +   a   3   e   +   a   4   e   +   a
G|---------------------------------------------------------------|
D|-------------------------------------------------3-------------|
A|-6-------6-------6-------6-------6-------6---------------6-----|
E|---------------------------------------------------------------|
   1   e   +   a   2   e   +   a   3   e   +   a   4   e   +   a
G|---------------------------------------------------------------|
D|---------------------------------------------------------------|
A|-3-------3-------3-------3-------3-------3-------3-------3-----|
E|---------------------------------------------------------------|
   1   e   +   a   2   e   +   a   3   e   +   a   4   e   +   a
G|---------------------------------------------------------------|
D|---------------------------------------------------------------|
A|---------------------------------------------------------------|
E|-3-------3-------3-------3-------3-------3-------3-------3-----|
   1   e   +   a   2   e   +   a   3   e   +   a   4   e   +   a
G|---------------------------------------------------------------|
D|---------------------------------------------------------------|
A|---------------------------------------------------------------|
E|-6-------6-------6-------6-------6-------6-------6-------6-----|
   1   e   +   a   2   e   +   a   3   e   +   a   4   e   +   a
G|---------------------------------------------------------------|
D|-------------------------------------------------3-------------|
A|-6-------6-------6-------6-------6-------6---------------6-----|
E|---------------------------------------------------------------|
   1   e   +   a   2   e   +   a   3   e   +   a   4   e   +   a
G|---------------------------------------------------------------|
D|---------------------------------------------------------------|
A|-3-------3-------3-------3-------3-------3-------3-------3-----|
E|---------------------------------------------------------------|
   1   e   +   a   2   e   +   a   3   e   +   a   4   e   +   a
G|---------------------------------------------------------------|
D|---------------------------------------------------------------|
A|---------------------------------------------------------------|
E|-3-------3-------3-------3-------3-------3-------3-------3-----|
   1   e   +   a   2   e   +   a   3   e   +   a   4   e   +   a
G|---------------------------------------------------------------|
D|---------------------------------------------------------------|
A|---------------------------------------------------------------|
E|-6-------6-----------------------------------------------------|
   1   e   +   a   2   e   +   a   3   e   +   a   4   e   +   a


Chorus:

G|---------------------------------------------------------------|
D|---------------------------------------------------------------|
A|-3-------------------------------------------------------------|
E|---------------------------------------------------------------|
   1   e   +   a   2   e   +   a   3   e   +   a   4   e   +   a
G|---------------------------------------------------------------|
D|---------------------------------------------------------------|
A|---------------------------------------------------------------|
E|-3-------------------------------------------------------------|
   1   e   +   a   2   e   +   a   3   e   +   a   4   e   +   a
G|---------------------------------------------------------------|
D|---------------------------------------------------------------|
A|---------------------------------------------------------------|
E|-6-------------------------------------------------------6-----|
   1   e   +   a   2   e   +   a   3   e   +   a   4   e   +   a
G|---------------------------------------------------------------|
D|---------------------------------------------------------------|
A|---------------------------------------------------------------|
E|-----------------------------------------3     /     6---------|
   1   e   +   a   2   e   +   a   3   e   +   a   4   e   +   a
G|---------------------------------------------------------------|
D|---------------------------------------------------------------|
A|-3-------------------------------------------------------------|
E|---------------------------------------------------------------|
   1   e   +   a   2   e   +   a   3   e   +   a   4   e   +   a
G|---------------------------------------------------------------|
D|---------------------------------------------------------------|
A|---------------------------------------------------------------|
E|-3-------------------------------------------------------------|
   1   e   +   a   2   e   +   a   3   e   +   a   4   e   +   a
G|---------------------------------------------------------------|
D|---------------------------------------------------------------|
A|---------------------------------------------------------------|
E|-6-------------------------------------------------------6-----|
   1   e   +   a   2   e   +   a   3   e   +   a   4   e   +   a
G|---------------------------------------------------------------|
D|---------------------------------------------------------------|
A|---------------------------------------------------------------|
E|-----------------------------------------3     /     6---------|
   1   e   +   a   2   e   +   a   3   e   +   a   4   e   +   a


Verse 2:

G|---------------------------------------------------------------|
D|---------------------------------------------------------------|
A|---------------------------------------------------------------|
E|---------------------------------------------------------------|
   1   e   +   a   2   e   +   a   3   e   +   a   4   e   +   a
G|---------------------------------------------------------------|
D|---------------------------------------------------------------|
A|---------------------------------------------------------------|
E|-3-------3-------3-------3-------3-------3-------3-------6-----|
   1   e   +   a   2   e   +   a   3   e   +   a   4   e   +   a
G|---------------------------------------------------------------|
D|---------------------------------------------------------------|
A|---------------------------------------------------------------|
E|-6-------6-------6-------6-------6-------6-------6-------6-----|
   1   e   +   a   2   e   +   a   3   e   +   a   4   e   +   a
G|---------------------------------------------------------------|
D|---------------------------------------------------------------|
A|---------------------------------------------------------------|
E|-6-------6-------6-------6-------6-------3-------6-------6-----|
   1   e   +   a   2   e   +   a   3   e   +   a   4   e   +   a
G|---------------------------------------------------------------|
D|-------------------------------------------------3-------3-----|
A|-3-------3-------3-------3-------3-------5---------------------|
E|---------------------------------------------------------------|
   1   e   +   a   2   e   +   a   3   e   +   a   4   e   +   a
G|-----------------------------------------2---------------------|
D|-5-------5-------5-------5-------5---------------5-------5-----|
A|---------------------------------------------------------------|
E|---------------------------------------------------------------|
   1   e   +   a   2   e   +   a   3   e   +   a   4   e   +   a
G|---------------------------------------------------------------|
D|---------------------------------------------------------------|
A|---------------------------------------------------------------|
E|-6-------6-------6-------6-------6-------6-------6-------6-----|
   1   e   +   a   2   e   +   a   3   e   +   a   4   e   +   a
G|---------------------------------------------------------------|
D|---------------------------------------------------------------|
A|---------------------------------------------------------------|
E|-6-------6-------6-------6-------6-------3-------6-------6-----|
   1   e   +   a   2   e   +   a   3   e   +   a   4   e   +   a
G|---------------------------------------------------------------|
D|-------------------------------------------------3-------------|
A|-6-------6-------6-------6-------6-------6---------------6-----|
E|---------------------------------------------------------------|
   1   e   +   a   2   e   +   a   3   e   +   a   4   e   +   a
G|---------------------------------------------------------------|
D|---------------------------------------------------------------|
A|-3-------3-------3-------3-------3-------3-------3-------3-----|
E|---------------------------------------------------------------|
   1   e   +   a   2   e   +   a   3   e   +   a   4   e   +   a
G|---------------------------------------------------------------|
D|---------------------------------------------------------------|
A|---------------------------------------------------------------|
E|-3-------3-------3-------3-------3-------3-------3-------3-----|
   1   e   +   a   2   e   +   a   3   e   +   a   4   e   +   a
G|---------------------------------------------------------------|
D|---------------------------------------------------------------|
A|---------------------------------------------------------------|
E|-6-------6-------6-------6-------6-------6-------6-------6-----|
   1   e   +   a   2   e   +   a   3   e   +   a   4   e   +   a
G|---------------------------------------------------------------|
D|-------------------------------------------------3-------------|
A|-6-------6-------6-------6-------6-------6---------------6-----|
E|---------------------------------------------------------------|
   1   e   +   a   2   e   +   a   3   e   +   a   4   e   +   a
G|---------------------------------------------------------------|
D|---------------------------------------------------------------|
A|-3-------3-------3-------3-------3-------3-------3-------3-----|
E|---------------------------------------------------------------|
   1   e   +   a   2   e   +   a   3   e   +   a   4   e   +   a
G|---------------------------------------------------------------|
D|---------------------------------------------------------------|
A|---------------------------------------------------------------|
E|-3-------3-------3-------3-------3-------3-------3-------3-----|
   1   e   +   a   2   e   +   a   3   e   +   a   4   e   +   a
G|---------------------------------------------------------------|
D|--------------------------------------------------------(3)----|
A|---------------------------------------------------------------|
E|---------------------------------------------------------------|
   1   e   +   a   2   e   +   a   3   e   +   a   4   e   +   a


Chorus:

G|---------------------------------------------------------------|
D|---------------------------------------------------------------|
A|-3-------------------------------------------------------------|
E|---------------------------------------------------------------|
   1   e   +   a   2   e   +   a   3   e   +   a   4   e   +   a
G|---------------------------------------------------------------|
D|---------------------------------------------------------------|
A|---------------------------------------------------------------|
E|-3-------------------------------------------------------------|
   1   e   +   a   2   e   +   a   3   e   +   a   4   e   +   a
G|---------------------------------------------------------------|
D|---------------------------------------------------------------|
A|---------------------------------------------------------------|
E|-6-------------------------------------------------------6-----|
   1   e   +   a   2   e   +   a   3   e   +   a   4   e   +   a
G|---------------------------------------------------------------|
D|---------------------------------------------------------------|
A|---------------------------------------------------------------|
E|-----------------------------------------3     /     6---------|
   1   e   +   a   2   e   +   a   3   e   +   a   4   e   +   a
G|---------------------------------------------------------------|
D|---------------------------------------------------------------|
A|-3-------------------------------------------------------------|
E|---------------------------------------------------------------|
   1   e   +   a   2   e   +   a   3   e   +   a   4   e   +   a
G|---------------------------------------------------------------|
D|---------------------------------------------------------------|
A|-3-------------------------------------------------------------|
E|---------------------------------------------------------------|
   1   e   +   a   2   e   +   a   3   e   +   a   4   e   +   a
G|---------------------------------------------------------------|
D|---------------------------------------------------------------|
A|---------------------------------------------------------------|
E|-3-------------------------------------------------------------|
   1   e   +   a   2   e   +   a   3   e   +   a   4   e   +   a
G|---------------------------------------------------------------|
D|---------------------------------------------------------------|
A|---------------------------------------------------------------|
E|-6-------------------------------------------------------6-----|
   1   e   +   a   2   e   +   a   3   e   +   a   4   e   +   a
G|---------------------------------------------------------------|
D|---------------------------------------------------------------|
A|---------------------------------------------------------------|
E|-----------------------------------------3     /     6---------|
   1   e   +   a   2   e   +   a   3   e   +   a   4   e   +   a
G|---------------------------------------------------------------|
D|---------------------------------------------------------------|
A|-3-------------------------------------------------------------|
E|---------------------------------------------------------------|
   1   e   +   a   2   e   +   a   3   e   +   a   4   e   +   a

Interlude:

G|---------------------------------------------------------------|
D|---------------------------------------------------------------|
A|---------------------------------------------------------------|
E|---------------------------------------------------------------|
   1   e   +   a   2   e   +   a   3   e   +   a   4   e   +   a
G|---------------------------------------------------------------|
D|---------------------------------------------------------------|
A|---------------------------------------------------------------|
E|---------------------------------------------------------------|
   1   e   +   a   2   e   +   a   3   e   +   a   4   e   +   a
G|---------------------------------------------------------------|
D|---------------------------------------------------------------|
A|---------------------------------------------------------------|
E|---------------------------------------------------------------|
   1   e   +   a   2   e   +   a   3   e   +   a   4   e   +   a
G|---------------------------------------------------------------|
D|---------------------------------------------------------------|
A|---------------------------------------------------------------|
E|---------------------------------------------------------------|
   1   e   +   a   2   e   +   a   3   e   +   a   4   e   +   a
G|---------------------------------------------------------------|
D|---------------------------------------------------------------|
A|---------------------------------------------------------------|
E|---------------------------------------------------------------|
   1   e   +   a   2   e   +   a   3   e   +   a   4   e   +   a
G|---------------------------------------------------------------|
D|---------------------------------------------------------------|
A|---------------------------------------------------------------|
E|---------------------------------------------------------------|
   1   e   +   a   2   e   +   a   3   e   +   a   4   e   +   a
G|---------------------------------------------------------------|
D|---------------------------------------------------------------|
A|---------------------------------------------------------------|
E|---------------------------------------------------------------|
   1   e   +   a   2   e   +   a   3   e   +   a   4   e   +   a
G|---------------------------------------------------------------|
D|---------------------------------------------------------------|
A|---------------------------------------------------------------|
E|---------------------------------------------------------------|
   1   e   +   a   2   e   +   a   3   e   +   a   4   e   +   a
G|---------------------------------------------------------------|
D|---------------------------------------------------------------|
A|---------------------------------------------------------------|
E|---------------------------------------------------------------|
   1   e   +   a   2   e   +   a   3   e   +   a   4   e   +   a
G|---------------------------------------------------------------|
D|---------------------------------------------------------------|
A|---------------------------------------------------------------|
E|---------------------------------------------------------------|
   1   e   +   a   2   e   +   a   3   e   +   a   4   e   +   a
G|---------------------------------------------------------------|
D|---------------------------------------------------------------|
A|---------------------------------------------------------------|
E|---------------------------------------------------------------|
   1   e   +   a   2   e   +   a   3   e   +   a   4   e   +   a
G|---------------------------------------------------------------|
D|---------------------------------------------------------------|
A|---------------------------------------------------------------|
E|---------------------------------------------------------------|
   1   e   +   a   2   e   +   a   3   e   +   a   4   e   +   a
G|---------------------------------------------------------------|
D|---------------------------------------------------------------|
A|---------------------------------------------------------------|
E|---------------------------------------------------------------|
   1   e   +   a   2   e   +   a   3   e   +   a   4   e   +   a
G|---------------------------------------------------------------|
D|---------------------------------------------------------------|
A|---------------------------------------------------------------|
E|---------------------------------------------------------------|
   1   e   +   a   2   e   +   a   3   e   +   a   4   e   +   a
G|---------------------------------------------------------------|
D|---------------------------------------------------------------|
A|---------------------------------------------------------------|
E|---------------------------------------------------------------|
   1   e   +   a   2   e   +   a   3   e   +   a   4   e   +   a


Bridge:

G|---------------------------------------------------------------|
D|---------------------------------------------------------------|
A|---------------------------------------------------------------|
E|---------------------------------------------------------------|
   1   e   +   a   2   e   +   a   3   e   +   a   4   e   +   a
G|---------------------------------------------------------------|
D|---------------------------------------------------------------|
A|---------------------------------------------------------------|
E|---------------------------------------------------------------|
   1   e   +   a   2   e   +   a   3   e   +   a   4   e   +   a
G|---------------------------------------------------------------|
D|---------------------------------------------------------------|
A|---------------------------------------------------------------|
E|---------------------------------------------------------------|
   1   e   +   a   2   e   +   a   3   e   +   a   4   e   +   a
G|---------------------------------------------------------------|
D|---------------------------------------------------------------|
A|---------------------------------------------------------------|
E|---------------------------------------------------------------|
   1   e   +   a   2   e   +   a   3   e   +   a   4   e   +   a
G|---------------------------------------------------------------|
D|---------------------------------------------------------------|
A|---------------------------------------------------------------|
E|---------------------------------------------------------------|
   1   e   +   a   2   e   +   a   3   e   +   a   4   e   +   a


Chorus:

G|---------------------------------------------------------------|
D|---------------------------------------------------------------|
A|-3-------------------------------------------------------------|
E|---------------------------------------------------------------|
   1   e   +   a   2   e   +   a   3   e   +   a   4   e   +   a
G|---------------------------------------------------------------|
D|---------------------------------------------------------------|
A|---------------------------------------------------------------|
E|-3-------------------------------------------------------------|
   1   e   +   a   2   e   +   a   3   e   +   a   4   e   +   a
G|---------------------------------------------------------------|
D|---------------------------------------------------------------|
A|---------------------------------------------------------------|
E|-6-------------------------------------------------------6-----|
   1   e   +   a   2   e   +   a   3   e   +   a   4   e   +   a
G|---------------------------------------------------------------|
D|---------------------------------------------------------------|
A|---------------------------------------------------------------|
E|-----------------------------------------3     /     6---------|
   1   e   +   a   2   e   +   a   3   e   +   a   4   e   +   a
G|---------------------------------------------------------------|
D|---------------------------------------------------------------|
A|-3-------------------------------------------------------------|
E|---------------------------------------------------------------|
   1   e   +   a   2   e   +   a   3   e   +   a   4   e   +   a
G|---------------------------------------------------------------|
D|---------------------------------------------------------------|
A|---------------------------------------------------------------|
E|-3-------------------------------------------------------------|
   1   e   +   a   2   e   +   a   3   e   +   a   4   e   +   a
G|---------------------------------------------------------------|
D|---------------------------------------------------------------|
A|---------------------------------------------------------------|
E|-6-------------------------------------------------------6-----|
   1   e   +   a   2   e   +   a   3   e   +   a   4   e   +   a
G|---------------------------------------------------------------|
D|---------------------------------------------------------------|
A|---------------------------------------------------------------|
E|-----------------------------------------3     /     6---------|
   1   e   +   a   2   e   +   a   3   e   +   a   4   e   +   a
G|---------------------------------------------------------------|
D|---------------------------------------------------------------|
A|-3-------------------------------------------------------------|
E|---------------------------------------------------------------|
   1   e   +   a   2   e   +   a   3   e   +   a   4   e   +   a
G|---------------------------------------------------------------|
D|---------------------------------------------------------------|
A|---------------------------------------------------------------|
E|-3-------------------------------------------------------------|
   1   e   +   a   2   e   +   a   3   e   +   a   4   e   +   a
G|---------------------------------------------------------------|
D|---------------------------------------------------------------|
A|---------------------------------------------------------------|
E|-6-------------------------------------------------------6-----|
   1   e   +   a   2   e   +   a   3   e   +   a   4   e   +   a
G|---------------------------------------------------------------|
D|---------------------------------------------------------------|
A|---------------------------------------------------------------|
E|-----------------------------------------3     /     6---------|
   1   e   +   a   2   e   +   a   3   e   +   a   4   e   +   a


Outro:

G|---------------------------------------------------------------|
D|-------------------------------------------------3-------------|
A|-6-------6-------6-------6-------6-------6---------------6-----|
E|---------------------------------------------------------------|
   1   e   +   a   2   e   +   a   3   e   +   a   4   e   +   a
G|---------------------------------------------------------------|
D|---------------------------------------------------------------|
A|-3-------3-------3-------3-------3-------3-------3-------3-----|
E|---------------------------------------------------------------|
   1   e   +   a   2   e   +   a   3   e   +   a   4   e   +   a
G|---------------------------------------------------------------|
D|---------------------------------------------------------------|
A|---------------------------------------------------------------|
E|-3-------3-------3-------3-------3-------3-------3-------3-----|
   1   e   +   a   2   e   +   a   3   e   +   a   4   e   +   a
G|---------------------------------------------------------------|
D|---------------------------------------------------------------|
A|---------------------------------------------------------------|
E|-6-------6-------6-------6-------6-------6-------6-------6-----|
   1   e   +   a   2   e   +   a   3   e   +   a   4   e   +   a
G|---------------------------------------------------------------|
D|-------------------------------------------------3-------------|
A|-6-------6-------6-------6-------6-------6---------------6-----|
E|---------------------------------------------------------------|
   1   e   +   a   2   e   +   a   3   e   +   a   4   e   +   a
G|---------------------------------------------------------------|
D|---------------------------------------------------------------|
A|-3-------3-------3-------3-------3-------3-------3-------3-----|
E|---------------------------------------------------------------|
   1   e   +   a   2   e   +   a   3   e   +   a   4   e   +   a
G|---------------------------------------------------------------|
D|---------------------------------------------------------------|
A|---------------------------------------------------------------|
E|-3-------3-------3-------3-------3-------3-------3-------3-----|
   1   e   +   a   2   e   +   a   3   e   +   a   4   e   +   a
G|---------------------------------------------------------------|
D|---------------------------------------------------------------|
A|---------------------------------------------------------------|
E|-6-------6-------6-------6-------6-------6-------6-------6-----|
   1   e   +   a   2   e   +   a   3   e   +   a   4   e   +   a

----------
KEY -

SLIDE UP - /
OPTIONAL NOTE - ( )
----------

Almost there ...

Sign in to get your own page with links to favourite songs and more. You are just one click away...

Login with Facebook Login with Google