Log in

One click and you are in

Login with Facebook Login with Google

Why sign up and log in

Guitar Tabs Explorer
The Neighbourhood bass tabs for Cry baby

Bass tabs

Tuning: Drop D (D A D G)

Difficulty: Novice

*Drop D Tuning

Bass starts at 0:17
G|--------------------------------------|
D|--------------------------------------|
A|-7-7-7-------5-5-5-5-5-5-5-5-5--------|
D|-------9-9-9--------------------------|

G|--------------------------------------|
D|-5/7-7-7/10-10-10---------------------|
A|------------------7-7-7-7-7-7-7-7-7-7-|
D|--------------------------------------|

G|-------------------------------|
D|-------------------------------|
A|-7-7-7-------5-5-5-5-5-5-5-5-5-| X2
D|-------9-9-9-------------------|

G|-----------------------------------|
D|-5/7-7-7-5-5-5---------------------|
A|---------------7-7-7-7-7-7-7-7-7-7-|
D|-----------------------------------|

"Hope there's some time to change it..."
G|-----------------------------------|
D|---------------------------------5-|
A|---------------5-3-3-3-3-3-3-5-7---|
D|-7-7-7-7-7-9-7---------------------|

G|---------------------------------|
D|---------------------------------|
A|-7-7-7-7-7-7-7-7-5-5-5-5-5-5-5-5-|
D|---------------------------------|

G|---------------------------------|
D|---------------------------------|
A|-3-3-3-3-3-2-3-5-7-7-7-7-7-7-7-7-|
D|---------------------------------|

G|---------------------------------|
D|------------------------/9-9-7-7-|
A|-5-5-5-5-5-5-5-5-5-5-5-5---------|
D|---------------------------------|

G|----------------------------|
D|----------------------------|
A|-7~------5~-----------------| X2
D|-----9~--------7~--10~--2~--|

"I think I worry a lot..."
G|-------------------------------|
D|-------------------------------|
A|-7-7-7-------5-5-5-5-5-5-5-5-5-|
D|-------9-9-9-------------------|

G|--------------------------------------|
D|-5/7-7-7/10-10-10---------------------|
A|------------------7-7-7-7-7-7-7-7-7-7-|
D|--------------------------------------|

G|-------------------------------|
D|-------------------------------|
A|-7-7-7-------5-5-5-5-5-5-5-5-5-|
D|-------9-9-9-------------------|

G|-----------------------------------|
D|-5/7-7-7-5-5-5---------------------|
A|---------------7-7-7-7-7-7-7-7-7-7-|
D|-----------------------------------|

G|-----------------------------------|
D|---------------------------------5-|
A|---------------5-3-3-3-3-3-3-5-7---|
D|-7-7-7-7-7-9-7---------------------|

G|---------------------------------|
D|---------------------------------|
A|-7-7-7-7-7-7-7-7-5-5-5-5-5-5-5-5-|
D|---------------------------------|

G|---------------------------------|
D|---------------------------------|
A|-3-3-3-3-3-2-3-5-7-7-7-7-7-7-7-7-|
D|---------------------------------|

G|---------------------------------|
D|-----------------------/9--5-----|
A|-5-5-5-5-5-5-5-5-5-5-5-------7-5-|
D|---------------------------------|

G|----------------------------|
D|----------------------------|
A|-7~------5~-----------------| X2
D|-----9~--------7~--10~--2~--|

"The sun's coming up..."
G|-------------------------------------------|
D|-------------------------------------------|
A|-------------------------------------------|
D|-7~---10~---2~---0~----7~---10~---2~---0~--|

G|--------------------------------------------------|
D|-------------------------5------------------------|
A|-------------3--3--3-5-7---7--7--7--7--5--5--5--5-|
D|-7--7--7--7---------------------------------------|

G|---------------------------------------|
D|------------------------5--------------|
A|-------------5-3--3-5-7---7--7--7--7~--|
D|-7--7--7-9-7---------------------------|

G|-------------------|
D|-------------------|
A|-17-17-17-17-17-17-|
D|-------------------|

"I hope you won't ever lie to me..."
G|----------------------------|
D|----------------------------|
A|-7~------5~-----------------| X4
D|-----9~--------7~--10~--2~--|

G|-------------|
D|-------------|
A|-7~------5~--|
D|-----9~------|

************************************

| /  Slide up
| ~  Vibrato

************************************

Almost there ...

Sign in to get your own page with links to favourite songs and more. You are just one click away...

Login with Facebook Login with Google