Log in

One click and you are in

Login with Facebook Login with Google

Why sign up and log in

Guitar Tabs Explorer
The Neighbourhood guitar tabs for Baby come home

Guitar tabs

BABY COME HOME'
by The Neighbourhood


 Solo:

  02:09                                               (hold)
e|--------------------------------------------------------------------------------|
B|--------------------------------------------------------------------------------|
G|--------10----------12fbr-10----------14-14-14----12fb--12---12fbr-10-----------|
D|--10h12------(10)---------------12/15---------------------------------12-12--\--|
A|--------------------------------------------------------------------------------|
E|--------------------------------------------------------------------------------|

e|-------------------------------------------------------------|
B|----------13--------------------------13---------------------|
G|-------10---12fb--10-----------10-12--12fb------12fbr-10-12--|
D|--/12-----------------12\10/12-------------------------------|
A|-------------------------------------------------------------|
E|-------------------------------------------------------------|

e|------------------------------------------------------------------------------------------------|
B|------------------------------------------------13fbr--13fb--13fb~~-----------------------------|
G|--12fb-12-12-12~~-12~~-12fbrp10----------------------14-----------------------------------------|
D|--------------------------------12-10--10---10--------------------------15--g14\12-12-10h12-12--|
A|------------------------------------------------------------------------------------------------|
E|------------------------------------------------------------------------------------------------|

  02:34
e|------------------------------------------------------------------------------------------------|
B|------------------------------------------------------------------------------------------------|
G|--10--12fbrp10------------------10------------------10--12fb--b--bb--/19-19--19~----------------|
D|--------------12\10---10--10/12-----12~~-(10)-10/12---------------------------------------------|
A|------------------------------------------------------------------------------------------------|
E|------------------------------------------------------------------------------------------------|


************************************

| h    Hammer-on
| p    Pull off
| b    Bend
| fb   Full bend
| fbr  Full bend then release
| /    Slide up
| \    Slide down
| ()   Ghost note
| g    Grace note

************************************

Almost there ...

Sign in to get your own page with links to favourite songs and more. You are just one click away...

Login with Facebook Login with Google