Log in

One click and you are in

Login with Facebook Login with Google

Why sign up and log in

Guitar Tabs Explorer
The Neighbourhood bass tabs for Baby came home

Baby Came Home bass tab by The Neighbourhood

The Neighbourhood bass tabs for Baby came home

Bass tabs

[Intro/Verse 1 - Starts at 0:17]

"Baby came home today..."

G|---------------------------------------------------------------------------|
D|---------------------------------------------------------------------------|
A|-5-5--3-3--2-2--1-1--------------------------------------------------------|
E|---------------------------------------------------------------------------| x4

[Chorus]

"Thinking about her..."

G|---------------------------------------------------------------------------|
D|---------------------------------------------------------------------------|
A|---------------------------------------------------------------------------|
E|-1-3-4-5-------------------------------------------------------------------| x3

"Then even you would know..."
G|---------------------------------------------------------------------------|
D|---------------------------------------------------------------------------|
A|---------------------------------------------------------------------------|
E|-5---3---1~----------------------------------------------------------------|


[Verse 2]

"So, baby packed up all she had..."

G|---------------------------------------------------------------------------|
D|---------------------------------------------------------------------------|
A|-5-5--3-3--2-2--1-1--------------------------------------------------------|
E|---------------------------------------------------------------------------| x4


[Chorus 2]

"Thinking about her..."
G|---------------------------------------------------------------------------|
D|---------------------------------------------------------------------------|
A|---------------------------------------------------------------------------|
E|-1-3-4-5-------------------------------------------------------------------| x3

"Then even you would know..."
G|---------------------------------------------------------------------------|
D|---------------------------------------------------------------------------|
A|---------------------------------------------------------------------------|
E|-5---3---1~----------------------------------------------------------------|


"She's mine..."
G|---------------------------------------------------------------------------|
D|---------------------------------------------------------------------------|
A|-5-5---3-3---2-2---1-1-----------------------------------------------------|
E|---------------------------------------------------------------------------| x5


[Outro]

"Thinking about her..."
G|---------------------------------------------------------------------------|
D|---------------------------------------------------------------------------|
A|---------------------------------------------------------------------------|
E|-1-3-4-5-------------------------------------------------------------------| x3

"Then even you would know..."
G|---------------------------------------------------------------------------|
D|---------------------------------------------------------------------------|
A|---------------5~----------------------------------------------------------|
E|-5---3---1~----------------------------------------------------------------|


*****************************************

| ~ Vibrato

Almost there ...

Sign in to get your own page with links to favourite songs and more. You are just one click away...

Login with Facebook Login with Google