Log in

One click and you are in

Login with Facebook Login with Google

Why sign up and log in

Guitar Tabs Explorer
The Neighbourhood guitar chords for Alleyways

Guitar chords with lyrics

  • Capo on 3rd
*** This has both chords/tabs with lead fills included. Hope you enjoy and Rock On!***


Intro:
                  A chord diagramE minorEm
If things were different, we were young
                                 A chord diagramC majorC      A chord diagramA minorAm
Skinny dipping, having fun, I remember
        A chord diagramE minorEm
Back in 1991, when this story first begun,
     A chord diagramC majorC          A chord diagramA minorAm
I remember (I remember)

Verse 1:

A chord diagramC majorC                                              A chord diagramA minorAm
All of these shelves, holding the things I've done
A chord diagramC majorC                             A chord diagramA minorAm
I knew myself before I knew anyone
              A chord diagramC majorC
And cause we all chew gum, we all have fun with water guns
             A chord diagramA minorAm
La da da da da da, da da dum dum dum

N.C

NOTE: Instead of the chords these are the notes for the above 2nd half of verse
Guitar 1 [:40-:45}
e|---------------------------------------------------------------------------|
B|---------------------------------------------------------------------------|
G|---------------------------------------------------------------------------|
D|---------------------------------------------------------------------------|
A|--3--3--3--3-----3--3--3--3-----3--3--3--3-----3--3--3--3------------------|
E|---------------------------------------------------------------------------|

Guitar 1 :45-:50:
e|---------------------------------------------------------------------------|
B|---------------------------------------------------------------------------|
G|---------------------------------------------------------------------------|
D|---------------------------------------------------------------------------|
A|---------------------------------------------------------------------------|
E|--5--5--5--5-----5--5--5--5-----5--5--5--5-----5--5--5--5------------------|

            A chord diagramC majorC
And we all grew up, shit got tough
                         A chord diagramA minorAm
Shit just wasn't simple enough

Guitar 1 [:50-:54}
e|---------------------------------------------------------------------------|
B|---------------------------------------------------------------------------|
G|---------------------------------------------------------------------------|
D|---------------------------------------------------------------------------|
A|--3--3--3--3-----3--3--3--3-----3--3--3--3-----3--3--3--3------------------|
E|---------------------------------------------------------------------------|
Guitar 2
e|------12----------------------------15-----------------------------8-------|
B|---------------------------------------------------------------------------|
G|---------------------------------------------------------------------------|
D|---------------------------------------------------------------------------|
A|---------------------------------------------------------------------------|
E|---------------------------------------------------------------------------|

Guitar 1 :55-:58:
e|---------------------------------------------------------------------------|
B|---------------------------------------------------------------------------|
G|---------------------------------------------------------------------------|
D|---------------------------------------------------------------------------|
A|---------------------------------------------------------------------------|
E|--5--5--5--5-----5--5--5--5-----5--5--5--5-----5--5--5--5------------------|
Guitar 2
e|-------7-----------------------------5-------------------------------------|
B|---------------------------------------------------------------------------|
G|---------------------------------------------------------------------------|
D|---------------------------------------------------------------------------|
A|---------------------------------------------------------------------------|
E|---------------------------------------------------------------------------|


Pre-Chorus:

1:00-1:17:
e|---------------------------------------------------------------------------|
B|----8-------8-------------------------------8------------------------------|
G|--------9--------9--7--5-----------------------9---7---9-------------------|
D|---------------------------------------------------------------------------|
A|---------------------------------------------------------------------------|
E|---------------------------------------------------------------------------|

N.C

Note: Quick Fill before Chorus
Fill 1:1:18:&1:27:
e|-------|
B|-8-----|
G|----9--|
D|-------|
A|-------|
E|-------|


Chorus:
A chord diagramC majorC                   A chord diagramA minorAm              A chord diagramE minorEm
And whenever the sun came out, we played
(We didn't want to get older, we didn't want to get older)
A chord diagramC majorC                      A chord diagramA minorAm               EM
We would run on the block all night and day
(We didn't want to get older)


Verse 2:
A chord diagramC majorC                                A chord diagramA minorAm
What a mistake, saying the way I felt
A chord diagramC majorC                              A chord diagramA minorAm
I'd say my main influence is myself
A chord diagramC majorC
And cause I started young, I learned a ton, I didn't run


Guitar 1 1:53-1:58:
e|---------------------------------------------------------------------------|
B|---------------------------------------------------------------------------|
G|---------------------------------------------------------------------------|
D|---------------------------------------------------------------------------|
A|--3--3--3--3-----3--3--3--3-----3--3--3--3-----3--3--3--3------------------|
E|---------------------------------------------------------------------------|
Guitar 1 1:59-2:03:
e|---------------------------------------------------------------------------|
B|---------------------------------------------------------------------------|
G|---------------------------------------------------------------------------|
D|---------------------------------------------------------------------------|
A|---------------------------------------------------------------------------|
E|--5--5--5--5-----5--5--5--5-----5--5--5--5-----5--5--5--5------------------|


 A chord diagramA minorAm
La da da da da da
A chord diagramC majorC                                                                  A chord diagramA minorAm
I was scared as fuck and out of touch, and I was still testing my luck, oh


Guitar 1 2:04-2:07:
e|---------------------------------------------------------------------------|
B|---------------------------------------------------------------------------|
G|---------------------------------------------------------------------------|
D|---------------------------------------------------------------------------|
A|--3--3--3--3-----3--3--3--3-----3--3--3--3-----3--3--3--3------------------|
E|---------------------------------------------------------------------------|
Guitar 2
e|------12----------------------------15-----------------------------8-------|
B|---------------------------------------------------------------------------|
G|---------------------------------------------------------------------------|
D|---------------------------------------------------------------------------|
A|---------------------------------------------------------------------------|
E|---------------------------------------------------------------------------|

Guitar 1 2:08-2:12:
e|---------------------------------------------------------------------------|
B|---------------------------------------------------------------------------|
G|---------------------------------------------------------------------------|
D|---------------------------------------------------------------------------|
A|---------------------------------------------------------------------------|
E|--5--5--5--5-----5--5--5--5-----5--5--5--5-----5--5--5--5------------------|
Guitar 2
e|-------7-----------------------------5-------------------------------------|
B|---------------------------------------------------------------------------|
G|---------------------------------------------------------------------------|
D|---------------------------------------------------------------------------|
A|---------------------------------------------------------------------------|
E|---------------------------------------------------------------------------|



Pre-Chorus:
2:14-2:32:
e|----------------------------12--10--8----------------------------12--10----|
B|----8-------8-------------------------------8------------------------------|
G|--------9--------9--7--5-----------------------9---7---9-------------------|
D|---------------------------------------------------------------------------|
A|---------------------------------------------------------------------------|
E|---------------------------------------------------------------------------|

Fill 1:2:33:&2:41:&2:51:&3:00:
e|-------|
B|-8-----|
G|----9--|
D|-------|
A|-------|
E|-------|


Chorus:
A chord diagramC majorC                   A chord diagramA minorAm             A chord diagramE minorEm
And whenever the sun came out, we played
(We didn't want to get older, we didn't want to get older)
A chord diagramC majorC                   A chord diagramA minorAm             A chord diagramE minorEm
We would run on the block all night and day
(We didn't want to get older, we didn't want to get older)
A chord diagramC majorC                   A chord diagramA minorAm             A chord diagramE minorEm
And whenever the sun came out, we played
(We didn't want to get older, we didn't want to get older)
A chord diagramC majorC      A chord diagramA minorAm                  A chord diagramE minorEm
I left myself in the alleyway


Outro:
                 A chord diagramE minorEm
If things were different, we were young
                                 A chord diagramC majorC     A chord diagramA minorAm
Skinny dipping, having fun, I remember
(I left myself in the alleyway)
         A chord diagramE minorEm                                            A chord diagramC majorC     A chord diagramA minorAm
All I wanted would become everything I ever loved, I remember
(I left myself in the alleyway)

N.C

Note:During the outro this little lick is being played lightly in the background.
Fill 2: 3:12-3:26:
e|---12-------12---------12--------12--------|
B|------13---------13--------13---------13---|
G|-------------------------------------------|
D|-------------------------------------------|
A|-------------------------------------------|
E|-------------------------------------------|


3:28-3:46:
e|----------------------------12--10--8----------------------------12--10----|
B|----8-------8-------------------------------8------------------------------|
G|--------9--------9--7--5-----------------------9---7---9-------------------|
D|---------------------------------------------------------------------------|
A|---------------------------------------------------------------------------|
E|---------------------------------------------------------------------------|

Almost there ...

Sign in to get your own page with links to favourite songs and more. You are just one click away...

Login with Facebook Login with Google