Log in

One click and you are in

Login with Facebook Login with Google

Why sign up and log in

Guitar Tabs Explorer
Negrita bass tabs for In ogni atomo

Bass tabs

Intro: 0:00:
 Gb|----------------|
 Db|----------------|
 Ab|------------2-/-|
 Eb|----------------|

Pre-Verse: 0:01:
 Gb|----------------|----------------|----------------|----------------|
 Db|----------------|----------------|----------------|----------------|
 Ab|9-9-9-99-99-9-9-|--------------2-|4-4-4-44-44-4-23|4-4-4-44-44-2-/-|
 Eb|----------------|5-5-5-55-55-5---|----------------|----------------|

 Gb|----------------|----------------|----------------|----------------|
 Db|----------------|----------------|----------------|----------------|
 Ab|9-9-9-99-99-9-9-|--------------2-|4-4-4-44-44-4-23|4-4-4-44-44-2-/-|
 Eb|----------------|5-5-5-55-55-5---|----------------|----------------|

 Gb|----------------|----------------|----------------|----------------|
 Db|----------------|----------------|----------------|----------------|
 Ab|9-9-9-99-99-9-9-|--------------2-|4-4-4-44-44-4-23|4-4-4-44-44-----|
 Eb|----------------|5-5-5-55-55-5---|----------------|------------5-4-|


Verse 1: 0:29:
 Gb|----------------|----------------|----------------|----------------|
 Db|----------------|----------------|----------------|----------------|
 Ab|----------------|--------------2-|4-4-4-44-44-4-23|4-4-4-44-44-4-0-|
 Eb|2-2-2-22-22-2-4-|5-5-5-55-55-5---|----------------|----------------|

 Gb|----------------|----------------|----------------|----------------|
 Db|----------------|----------------|----------------|----------------|
 Ab|----------------|--------------2-|4-4-4-44-44-4-23|4-4-4-44-44-4-4-|
 Eb|2-2-2-22-22-2-4-|5-5-5-55-55-5---|----------------|----------------|


Chorus: 0:48:
 Gb|----------------|----------------|----------------|----------------|
 Db|----------------|----------------|----------------|----------------|
 Ab|5-5-5-55-55-5-5-|----------------|----------------|--------------4-|
 Eb|----------------|5-5-5-55-55-5-\-|0-0-0-00-00-0-2-|7-7-7-77-77-7---|

 Gb|----------------|
 Db|----------------|
 Ab|5-5-5-55-55-5-7-|
 Eb|----------------|

Pre-Verse: 1:00:
 Gb|----------------|----------------|----------------|----------------|
 Db|----------------|----------------|----------------|----------------|
 Ab|9-9-9-99-99-9-9-|--------------2-|4-4-4-44-44-4-23|4-4-4-44-44-----|
 Eb|----------------|5-5-5-55-55-5---|----------------|------------5-4-|

Verse 2: 1:10:
 Gb|----------------|----------------|----------------|----------------|
 Db|----------------|----------------|----------------|----------------|
 Ab|----------------|--------------2-|4-4-4-44-44-4-23|4-4-4-44-44-4---|
 Eb|2-2-2-22-22-2-4-|5-5-5-55-55-5---|----------------|--------------0-|

 Gb|----------------|----------------|----------------|----------------|
 Db|----------------|----------------|----------------|----------------|
 Ab|----------------|--------------2-|4-4-4-44-44-4-23|4-4-4-44-44-4-4-|
 Eb|2-2-2-22-22-2-4-|5-5-5-55-55-5---|----------------|----------------|


Chorus: 1:28:
 Gb|----------------|----------------|----------------|----------------|
 Db|----------------|----------------|----------------|----------------|
 Ab|5-5-5-55-55-5-5-|----------------|----------------|--------------4-|
 Eb|----------------|5-5-5-55-55-5-\-|0-0-0-00-00-0-2-|7-7-7-77-77-7---|

 Gb|----------------|----------------|----------------|----------------|
 Db|----------------|----------------|----------------|----------------|
 Ab|5-5-5-55-55-5-5-|----------------|7-7-7-77-77-7-5-|7-7-7-77-77-----|
 Eb|----------------|5-5-5-55-55-5-/-|----------------|------------0-2-|


Bridge: 1:48:
 Gb|----------------|----------------|----------------|----------------|
 Db|----------------|----------------|----------------|----------------|
 Ab|----------------|----------------|----------------|----------5-5-7-|
 Eb|3-3-3-33-33-3-3-|2-2-2-22-22-2-2-|0-0-0-00-00-0-0-|0-4-4-77-7------|

 Gb|----------------|----------------|----------------|----------------|
 Db|----------------|----------------|----------------|----------------|
 Ab|----------------|----------------|----------------|----7-55-5--7-/-|
 Eb|3-3-3-33-33-3-3-|2-2-2-22-22-2-2-|0-0-0-00-00-0-0-|0-4-------7-----|

Pre-Verse: 2:07:
 Gb|----------------|----------------|----------------|----------------|
 Db|----------------|----------------|----------------|----------------|
 Ab|9-9-9-99-99-9-9-|--------------2-|4-4-4-44-44-4-23|4-4-4-44-44-2-/-|
 Eb|----------------|5-5-5-55-55-5---|----------------|----------------|

 Gb|----------------|----------------|----------------|----------------|
 Db|----------------|----------------|----------------|----------------|
 Ab|9-9-9-99-99-9-9-|--------------2-|4-4-4-44-44-4-23|4-4-4-44-44-2-\-|
 Eb|----------------|5-5-5-55-55-5---|----------------|----------------|

 Gb|----------------|----------------|----------------|----------------|
 Db|----------------|----------------|----------------|----------------|
 Ab|----------------|----------------|----------------|----------4-2-/-|
 Eb|----------------|----------------|----------------|----------------|

 Gb|----------------|----------------|----------------|----------------|
 Db|----------------|----------------|----------------|----------------|
 Ab|9-9-9-99-99-9-9-|--------------2-|4-4-4-44-44-4-23|4-4-4-44-44-----|
 Eb|----------------|5-5-5-55-55-5---|----------------|------------0---|


Verse 3: 2:44:
 Gb|----------------|----------------|----------------|----------------|
 Db|----------------|----------------|----------------|----------------|
 Ab|----------------|--------------2-|4-4-4-44-44-4-23|4-4-4-44-44-----|
 Eb|2-2-2-22-22-2-4-|5-5-5-55-55-5---|----------------|------------0---|

 Gb|----------------|----------------|----------------|----------------|
 Db|----------------|----------------|----------------|----------------|
 Ab|----------------|--------------2-|4-4-4-44-44-4-23|4-4-4-44-44-4-4-|
 Eb|2-2-2-22-22-2-4-|5-5-5-55-55-5---|----------------|----------------|

 Gb|----------------|----------------|----------------|6-6-6-44-4------|
 Db|----------------|----------------|--------------6-|----------6-6-7-|
 Ab|2-2-2-22-22-2-2-|5-5-5-55-55-5-5-|4-4-4-44-44-4---|----------------|
 Eb|----------------|----------------|----------------|----------------|

 Gb|4-4-4-44-44-4-4-|----------------|----------------|----------------|
 Db|----------------|----------------|----------------|----------------|
 Ab|----------------|5-5-5-55-55-5-5-|4-4-4-44-44-4-23|4-4-4-44-44-4-4-|
 Eb|----------------|----------------|----------------|----------------|


Chorus: 3:22:
 Gb|----------------|----------------|----------------|----------------|
 Db|----------------|----------------|----------------|----------------|
 Ab|5-5-5-55-55-5-5-|----------------|----------------|--------------4-|
 Eb|----------------|5-5-5-55-55-5-\-|0-0-0-00-00-0-2-|7-7-7-77-77-7---|

 Gb|----------------|----------------|----------------|----------------|
 Db|----------------|----------------|----------------|----------------|
 Ab|5-5-5-55-55-5-5-|----------------|--------------2-|7-7-7-77-77-----|
 Eb|----------------|5-5-5-55-55-5-\-|0-0-0-00-00-0---|------------0-2-|


Outro: 3:41:
 Gb|----------------|----------------|----------------|----------------|
 Db|----------------|----------------|----------------|----------------|
 Ab|----------------|----------------|----------------|----------5-5-7-|
 Eb|3-3-3-33-33-3-3-|2-2-2-22-22-2-2-|0-0-0-00-00-0-0-|0-4-4-77-7------|

 Gb|----------------|----------------|----------------|----------------|
 Db|----------------|----------------|----------------|----------------|
 Ab|----------------|----------------|--------------2-|7-7-7-55-5--5---|
 Eb|3-3-3-33-33-3-3-|2-2-2-22-22-2-2-|0-0-0-00-00-0---|----------7---5-|

 Gb|----------------|----------------|----------------|----------------|
 Db|----------------|----------------|----------------|----------------|
 Ab|----------------|----------------|----------------|----------5-5-7-|
 Eb|3-3-3-33-33-3-3-|2-2-2-22-22-2-2-|0-0-0-00-00-0-0-|0-4-4-77-7------|

 Gb|----------------|----------------|----------------|----------------|
 Db|----------------|----------------|----------------|----------------|
 Ab|----------------|----------------|----------------|----------5-5-7-|
 Eb|3-3-3-33-33-3-3-|2-2-2-22-22-2-2-|0-0-0-00-00-0-0-|0-4-4-77-7------|

 Gb|----------------|----------------|----------------|----------------|
 Db|----------------|----------------|----------------|----------------|
 Ab|----------------|----------------|--------------2-|7-7-7-55-5--5---|
 Eb|3-3-3-33-33-3-3-|2-2-2-22-22-2-2-|0-0-0-00-00-0---|----------7---5-|

 Gb|----------------|----------------|----------------|----------------|
 Db|----------------|----------------|----------------|----------------|
 Ab|----------------|----------------|----------------|----------------|
 Eb|3---------------|2---------------|0---------------|0---------------|

 Gb|----------------|----------------|----------------|----------------|
 Db|----------------|----------------|----------------|----------------|
 Ab|----------------|----------------|--------------7-|7-7-7-7---------|
 Eb|3---------------|2---------------|0---------------|----------------|

 Gb|----------------|----------------|----------------|----------------|
 Db|----------------|----------------|----------------|----------------|
 Ab|7-7-7-----------|7---7-----------|7---7-----------|----------------|
 Eb|----------------|----------------|----------------|----------------|

 Gb|----------------|----------------|----------------|----------------|
 Db|----------------|----------------|----------------|----------------|
 Ab|7---------------|----------------|----------------|----------------|
 Eb|----------------|----------------|----------------|----------------|

Almost there ...

Sign in to get your own page with links to favourite songs and more. You are just one click away...

Login with Facebook Login with Google