Search tabs and chords

Search for song, artist or band

Log in

One click and you are in

Login with Facebook Login with Google

Why sign up and log in

Guitar Tabs Explorer
Negramaro guitar chords for Fino allimbrunire

Guitar chords with lyrics

Intro:
Am chord diagramAmAm          C chord diagramCC           Dm chord diagramDmDm          F chord diagramFF        Am chord diagramAmAm
E|---------------------------------------------|
B|---------------------------------------------|
G|--9--12--9----9--7--10----9--10--------------| x2
D|---------------------------------9----10--9--|
A|---------------------------------------------|
E|---------------------------------------------|

Verse:
Am chord diagramAmAm
Torneranno i vecchi tempi
                            C chord diagramCC
con le loro camicie fiammanti

sfideranno le correnti
                               Dm chord diagramDmDm
fino a perdere il nome dei giorni

spesi male per contare
                       F chord diagramFF
solo quelli finiti bene

per non avere da pensare
                           Am chord diagramAmAm
a nient’altro se non al mare

torneranno tutte le genti
                           C chord diagramCC
che non hanno voluto parlare

scenderanno giù dai monti
                          Dm chord diagramDmDm
ed allora staremo a sentire

quelle storie da cortile
                    F chord diagramFF
che facevano annoiare

ma che adesso sono aria
                     C chord diagramCC
buona pure da mangiare

tornerai anche tu tra gli altri
                     G chord diagramGG
e mi sentirò impazzire

tornerai ti avrò davanti
                        Am chord diagramAmAm
spero solo di non svenire

mentre torni non voltarti
                         F chord diagramFF
che non voglio più sparire

nel ricordo dei miei giorni
                       Am chord diagramAmAm
resta fino all’imbrunire

Am chord diagramAmAm          C chord diagramCC           Dm chord diagramDmDm          F chord diagramFF        Am chord diagramAmAm
e|---------------------------------------------|
B|---------------------------------------------|
G|--9--12--9----9--7--10----9--10--------------|
D|---------------------------------9----10--9--|
A|---------------------------------------------|
E|---------------------------------------------|

Am chord diagramAmAm
Torneranno gli innocenti
                         C chord diagramCC
tutti pieni di compassione

e gli errori dei potenti
                     Dm chord diagramDmDm
fatti senza esitazione

senza lividi sui volti
                           F chord diagramFF
con un taglio sopra al cuore

prendi un ago e siamo pronti
                      C chord diagramCC
siamo pronti a ricucire

tornerai tu in mezzo agli altri
                    G chord diagramGG
e sarà come impazzire

tornerai e ti avrò davanti
                        Am chord diagramAmAm
spero solo di non svenire
                                                   F chord diagramFF
mentre torni non voltarti che non voglio più sparire
                                                   C chord diagramCC
nel ricordo dei miei giorni resta fino all’imbrunire

C chord diagramCC
tornerai tu in mezzo agli altri
                 G chord diagramGG
e sarà come morire

tornerai e ti avrò davanti
                        Am chord diagramAmAm
spero solo di non svenire

mentre torni non voltarti
                         F chord diagramFF
che non voglio più svanire

nel ricordo dei miei giorni
                       Am chord diagramAmAm
resta fino all’imbrunire

Am chord diagramAmAm          C chord diagramCC           Dm chord diagramDmDm          F chord diagramFF        Am chord diagramAmAm
e|---------------------------------------------|
B|---------------------------------------------|
G|--9--12--9----9--7--10----9--10--------------| x2
D|---------------------------------9----10--9--|
A|---------------------------------------------|
E|---------------------------------------------|

(torneranno anche gli uccelli, ti diranno come volare, per raggiungere orizzonti

al di la del mare)



Stringimi come sei

non c’è più

niente


C chord diagramCC
tornerai tu in mezzo agli altri
                    G chord diagramGG
e sarà come impazzire

tornerai e ti avrò davanti
                        Am chord diagramAmAm
spero solo di non svenire

mentre torni non voltarti
                         F chord diagramFF
che non voglio più svanire
                                                   Am chord diagramAmAm
nel ricordo dei miei giorni resta fino all’imbrunire


e|--------------------------------|
B|--------------------------------|
G|--9--12--9-------9--12--9--14---| x2
D|------------9-------------------|
A|--------------------------------|
E|--------------------------------|

resta fino all’imbrunire

niente

resta fino all’imbrunire

Almost there ...

Sign in to get your own page with links to favourite songs and more. You are just one click away...

Login with Facebook Login with Google