Something Beautiful by NEEDTOBREATHE

Something Beautiful tab by NEEDTOBREATHE

Guitar tabs

NeedtoBreathe's new song off "The Outsiders"
"Something Beautiful"
Now it is in Open Db tuning and hopefully a little more like they play it
Intro
Db|--------0--------0------------0--------0-----|
Ab|----------0---------------------0--------0---|
F |------------8---------------------8----------|
Db|-----7--------------------7------------------|
Ab|---5-------------------5------------5--------|
Db|--------------5-----0------------------------|

Verse
Db|--------0--------0------------0--------0-----|
Ab|----------0---------------------0--------0---|
F |------------8---------------------8----------|
Db|-----7--------------------7------------------|
Ab|---5-------------------5------------5--------|
Db|--------------5-----0------------------------| 2x

Db|--------0--------0------------0--------0-----|
Ab|----------0---------------------0--------0---|
F |------------8---------------------8----------|
Db|-----9--------------------7------------------|
Ab|-----------------------5---------------------|
Db|----9---------5-----4----------------4-------|

Db|--------0--------0------0--------0-----|
Ab|----------0--------0------0--------0---|
F |------------8---------------8----------|
Db|---------------------------------------|
Ab|---------------------------------------|
Db|----7----------7-----5-----------------|

Verse

1st Chorus
Db|---0---|---0---|---0---|---0---|
Ab|---0---|---0---|---0---|---0---|
F |---8---|---8---|---8---|---8---|
Db|---7---|---7---|---9---|---7---|
Ab|---5---|---x---|---x---|---x---|
Db|-------|---5---|---9---|---7---| 3x

Db|---0---|------0---|
Ab|---0---|------0---|
F |---8---|------8---|
Db|---7---|------7---|
Ab|---5---|------5---|
Db|-------|---5--0---|

Verse

2nd Chorus
Db|---0---|---0---|---0---|---0---|
Ab|---0---|---0---|---0---|---0---|
F |---8---|---8---|---8---|---8---|
Db|---7---|---7---|---9---|---7---|
Ab|---5---|---x---|---x---|---x---|
Db|-------|---5---|---9---|---7---|

Db|---0---|---0---|---0---|---0---|
Ab|---0---|---0---|---0---|---0---|
F |---8---|---8---|---8---|---8---|
Db|---7---|---7---|---9---|---7---|
Ab|---5---|---7---|---x---|---x---|
Db|-------|-------|---9---|---7---|

Bridge
Db|---0-0-0--0--0--0--0--0---|---0-0-0--0--0--0--0--0---|
Ab|---0-0-0--0--0--0--0--0---|---0-0-0--0--0--0--0--0---|
F |---0-0-13-13-13-12-12-12--|---0-0-12-12-12-8--8--8---|
Db|---0-0-0--0--0--0--0--0---|---0-0-10-10-10-9--9--9---|
Ab|---0-0-12-12-12-12-12-12--|---0-0-12-12-12-10-10-10--|
Db|---0-0--------------------|---0-0-0--0--0--0--0--0---|

Db|---0-0-0--0--0--0--0--0---|---0-0-0--0--0--0----|
Ab|---0-0-0--0--0--0--0--0---|---0-0-0--0--0--0----|
F |---0-0-8--8--8--8--8--8---|---8-8-8--8--8--0----|
Db|---0-0-0--0--0--0--0--0---|---0-0-0--0--0--0----|
Ab|---0-0-10-10-10-9--9--9---|---7-7-7--9--7--5----|
Db|---0-0--------------------|---0-0-0--0--0--0----|

Chorus

Other versions of Something Beautiful

Alternative guitar chords and tabs for Something Beautiful by NEEDTOBREATHE

Find guitar tabs and chords

A B C D E F G H I J K L M N O P Q R S T U V W X Y Z #