Oohs And Ahhs by NEEDTOBREATHE

Oohs And Ahhs chords by NEEDTOBREATHE

Guitar chords with lyrics

Tuning: Standard (E A D G B E)

Key: C

Tabbed from: https://youtu.be/SLpwHU5Px88

The lead guitar for the instrumental is playing a more aggressive strum pattern
while filling on the C chord, something like the solo just not as distinct.
Both guitars are using bar chords.



Verse 1:
C         G
Take me back to a simpler time

I never knew the difference
     C
And the words were mine
               G
Another man could take it all in his stride
           C
My tracks have left a stain
           G
We were fresh coming off the vine
              C
Thrown into a barrel of the cheapest wine
             G
Bottled in a store with a neon sign
             C
And we're all the ones to blame

Pre Chorus:
G#                F   Bb B
Cause in our hearts we know it's true

Chorus:
    C      G
We got oohs, we got ahhs
               C
We got everything a man could need
          G
We got oohs, we got ahhs
                    C
Still got a mountain full of mouths to feed

Solo:
 C       G             C          G
e|----10--8--------------------10--8----------------10--8-------------------|
B|---8-------8-----------h8---8-------8------------8-------8-----------h8---|
G|--8-----------8---h10------8-----------8---h10--8-----------8---h10-------|
D|-8------------------------8--------------------8--------------------------|
A|--------------------------------------------------------------------------|
E|--------------------------------------------------------------------------|

        C
e|----10--8-------------------|
B|---8-------8----------------|
G|--8-----------8---h10-8-----|
D|-8--------------------------|
A|----------------------------|
E|----------------------------|

Verse 2:
C           G
Tear the ocean and the skies apart
           C
Circle up the wagons underneath the stars
              G
Watch us spin around like a meteorite
             C
It goes down and down and down

Pre Chorus:
G#                F  Bb B
Cause in our hearts we know it's true

Chorus:
    C      G
We got oohs, we got ahhs
               C
We got everything a man could need
          G
We got oohs, we got ahhs
                    C
Still got a mountain full of mouths to feed
    C      G
We got oohs, we got ahhs
               C
We got everything a man could need
          G
We got oohs, we got ahhs
                    C
Still got a mountain full of mouths to feed

Instrumental:
C G C G C G C G C

Coda:
C  G   C     G
Holy Water, signs and wonder
C   G   C  G
Angels hover, over me
C  G   C     G
Holy Water, signs and wonder
C   G   C  G
Angels hover, over me
N.C.
Holy water, signs and wonder

Angels hover, over me



************************************

| h Hammer-on

************************************

Find guitar tabs and chords

A B C D E F G H I J K L M N O P Q R S T U V W X Y Z #