Maybe Tthey're On To Us by NEEDTOBREATHE

Maybe Tthey're On To Us tab by NEEDTOBREATHE

Intro

Intro:

E|------------------------------------|
B|------------------------------------|
G|------------------------------------|
D|--------7--7-------7--7--7--7----6--|
A|--------9--9-------9--9--9--9----7--|
E|-----0------------------------------|




E|------------------------------------|
B|------------------------------------|
G|------------------------------------|
D|--------7--7-------7--7--7--7----6--|
A|--------9--9-------9--9--9--9----7--|
E|-----0------------------------------|

E|------------------------------------|
B|------------------------------------|
G|--------7--7-------7--7--7--7----6--|
D|--------9--9-------9--9--9--9----7--|
A|-----0------------------------------|
E|------------------------------------|

E|------------------------------------|
B|------------------------------------|
G|----11--11----11--11--11--11----10--|
D|----11--11----11--11--11--11----11--|
A|-0----------------------------------|
E|------------------------------------|

Other versions of Maybe Tthey're On To Us

Alternative guitar chords and tabs for Maybe Tthey're On To Us by NEEDTOBREATHE

Find guitar tabs and chords

A B C D E F G H I J K L M N O P Q R S T U V W X Y Z #