Lay Em Down by NEEDTOBREATHE

Lay Em Down tab by NEEDTOBREATHE

Guitar tabs

New Song from NeedtoBreathe off "The Outsiders"

NeedtoBreathe ~ Lay 'Em Down  (Open C) CGCGCe

Verse
e|---0----0----0---0--------|--0---0---0---0---------|
C|---0----0----0---0--------|--0---0---0---0---------|
G|---9----7----5---5--------|--9---7---5---5--strum--|
C|---7----5----4---4-strum--|--7---5---4---4---some--|
G|---0----0----0---0-some---|--0---0---0---0---------|
C|---0----0----0---0--------|--0---0---0---0---------|
   Come down to the river Come and let yourself in

e|---0----0----0---0-----|--0---0---0---0---------|
C|---0----0----0---0-----|--0---0---0---0---------|
G|---9----7----4---5-----|--9---7---5---5--strum--|
C|---7----5----2---4-----|--7---5---4---4---some--|
G|---0----0----0---0-----|--0---0---0---0---------|
C|---0----0----0---0-----|--0---0---0---0---------|
Make good on a promise  To never hurt again

e|--------0----0----0------|-----0---0---0--------|
C|--------0----0----0------|-----0---0---0--------|
G|--------9----10---12-----|-----12--10--9/10-----|
C|--------7----9----10-----|-----10--9---7/9------|
G|--------0----0----0------|-----0---0---0--------|
C|--------0----0----0------|-----0---0---0--------|
If you're lost and lonely You're Broken down

e|-----0----0-----0------|---0---0---0---0---------|
C|-----0----0-----0------|---0---0---0---0---------|
G|-----10---9-----7\9----|---9---7---5---5--strum--|
C|-----9----7-----5\7----|---7---5---4---4---some--|
G|-----0----0-----0------|---0---0---0---0---------|
C|-----0----0-----0------|---0---0---0---0---------|
Bring all of your troubles come lay 'em down

Verse 2
All you sinners And the weak at heart
All you helpless On the boulevards
Wherever you are now Whatever evil you've found
Bring all of your troubles And come lay 'em down

Chorus
    F  C   Am  G
e|-----0----0-----0-----0----|
C|-----0----0-----0-----0----|
G|-----0----0-----0-----0----|
C|-----5----0-----9-----7----|
G|-----5----0-----9-----7----|
C|-----5----0-----9-----7----|

 F             C
We're all tied to the same old failings
F            C
Finding shelter in things we know
 Am          G
We're all dirty like corrupted small towns
F
We'll bring our troubles
F
We'll bring our troubles

e|---0---0---0---0---------|
C|---0---0---0---0---------|
G|---9---7---5---5--strum--|
C|---7---5---4---4---some--|
G|---0---0---0---0---------|
C|---0---0---0---0---------|
  lay 'em down

e|--0----0----0---0--------|--0---0---0---0-------|--0---0---0---0---------|
C|--0----0----0---0--------|--0---0---0---0-------|--0---0---0---0---------|
G|--9----7----5---5--------|--7---9---10--10------|--9---7---5---5--strum--|
C|--7----5----4---4-strum--|--5---7---9---9-------|--7---5---4---4---some--|
G|--0----0----0---0-some---|--0---0---0---0-------|--0---0---0---0---------|
C|--0----0----0---0--------|--0---0---0---0-------|--0---0---0---0---------|

Verse 3
All you rich men And the high above
All those with And without love
All you burdened Broken down
Bring all of your troubles
Come lay 'em down

Electric guitar                         |3x|
e|-------------------------------------------------------------------|8\12-|
B|-8/13-13-13-13----10/12-12-12-12-----------------------------------|-----|
G|---------------12-----------------12-10/12-12-12-12--9h10p9-9-9-9--|-----|
D|----------------------------------------------------12-------------|-----|
A|-------------------------------------------------------------------|-----|
E|-------------------------------------------------------------------|-----|

Other versions of Lay Em Down

Alternative guitar chords and tabs for Lay Em Down by NEEDTOBREATHE

Find guitar tabs and chords

A B C D E F G H I J K L M N O P Q R S T U V W X Y Z #