Garden Acoustic by NEEDTOBREATHE

Garden Acoustic tab by NEEDTOBREATHE

Guitar tabs

just copy there's and add the live solo and verses in here. Mainly this is
just to get everything into one, easy to read tab, i know i like tabs like
that and i hope you all do too.

Watch the live acoustic: http://www.youtube.com/watch?v=li8aiGtNyZo


----------------------------------------------By Southtownrider
Intro/ Verse/[Bridge]
e|-------------------------------------------------------------------|
B|-------------------------------------------------------------------|
G|-------0-----0-----0-----0-----0-----0-----0----0------------------|
D|------0----------------------------------------0-------------------|
A|---2-3-----2-----3-----5-----7-----9-----2----3--------------------|
E|---------3-----5-----7-----8-----10-----3---------3----------------|

Chords for Chorus
	    C    G    D?   Em
e|------0-------1-------0-------0-----------|
B|------1-------0-------3-------0-----------|
G|------0-------0-------0-------0-----------|
D|------2-------0-------4-------2-----------|
A|------3-------2-------5-------2-----------|
E|------0-------3-------0-------0-----------|

Chorus
    C    G     D?   Em
Let the songs I sing bring joy to you
  C    G       D?
Let words I say profess my love
    C    G       D?    Em
Let the notes I choose be your favorite tune
  C       D?       G C G
And Father let my heart be after you

-----------------------------------------------------by Southtownrider


-Verse 1-

Won't you take this cup from me?
because fear has stolen all my sleep.
If tomorrow means my death
pray you'll save their souls with it.

-Chorus-

Let the songs I sing bring joy to you.
Let the words I say confess my love.
Let the notes I choose be your favorite tune.
Father let my heart be after you.

-Verse 2-

In this hour of doubt I see
who I am is not just me
so give me strength to die myself
so love can live to tell the tale.

-Chorus-
+Father let my heart be for you

-Bridge-(Strum the verse, finger-picked, chords)

let my heart be for For you
yeah, and everything I do
be for you

-Last chorus- (do the same chords just descend do the B, G, and D strings for each chord.)

e|-----------------------------|
B|--x-----x-----x-----x--------| Do this for each measure of a chord)
G|----x-----x-----x-----x------|
D|------x-----x-----x-----x----|
A|-----------------------------|
E|-----------------------------|


-Slide solo-
e|-------------------------------------------------------------------------|
B|-3/5-3---8\7-7-7/8--3/5-3----3-3/7--3/5-5-5/8-8-8\7-8-8/10-10\8-10-10/12-|
G|-------4------------------4----------------------------------------------|

e|-------------------------------------------------------------------------|
B|-10/12-12-12\10-10-10/12-------------------------------------------------|

Other versions of Garden Acoustic

Alternative guitar chords and tabs for Garden Acoustic by NEEDTOBREATHE

Find guitar tabs and chords

A B C D E F G H I J K L M N O P Q R S T U V W X Y Z #