Brother by NEEDTOBREATHE

Brother tab by NEEDTOBREATHE

Intro

Intro:

E|------------------------------------|
B|---12-12-12-12----------------------|
G|----------------11-----13-14-16-----|
D|--------------------------------16--|
A|------------------------------------|
E|------------------------------------|



E|------------------------------------|
B|------------------------------------|
G|----14------------------------------|
D|-------14-16------------------------|
A|-------------17------12-14----------|
E|------------------------------------|

Other versions of Brother

Alternative guitar chords and tabs for Brother by NEEDTOBREATHE

Find guitar tabs and chords

A B C D E F G H I J K L M N O P Q R S T U V W X Y Z #