Log in

One click and you are in

Login with Facebook Login with Google

Why sign up and log in

Guitar Tabs Explorer
Needtobreathe guitar chords for Alive

Guitar chords with lyrics

Tuning: Standard (E A D G B E)


Riff:
     A chord diagramD MajorD
A chord diagramE MajorE ||---------------------------|----------------------------|
A chord diagramBB ||---------------------------|--------------10------------|
A chord diagramG+G ||-------11-------11---------|--12----11----------11------|
A chord diagramD MajorD ||----0--------0--------0----|-----------------------0----|
A chord diagramA augmentedA ||---------------------------|----------------------------|
A chord diagramE MajorE ||-10-------10-------10------|-----10----10----10---------|

A chord diagramB minorBm                            A chord diagramG+G
----------------------------|---------------------------|||
----------------------------|---------------------------|||
--------7--------7----------|--16-------16-------16----o|||
-----0--------0--------0----|--------0--------0--------o|||
----------------------------|---------------------------|||
--7--------7--------7-------|-----15-------15-------10--|||


Solo: alternate played just befor bridge
 A chord diagramD MajorD
---------------------------|----------------------------|
---------------------------|--------------10------------|
-------11-------11---------|--12----11----------11------|
----0--------0--------0----|-----------------------0----|
---------------------------|----------------------------|
-10-------10-------10------|-----10----10----10---------|

A chord diagramB minorBm                            A chord diagramG+G
----------------------------|---------------------------|||
----------------------------|---------------------------|||
--------7--------7----------|--4--------4--------4-----o|||
-----0--------0--------0----|--------0--------0--------o|||
----------------------------|---------------------------|||
--7--------7--------7-------|-----3--------3--------3---|||


Intro:
A chord diagramD MajorD   A chord diagramD MajorD   A chord diagramB minorBm   A chord diagramG+G      x2


Verse 1:
  A chord diagramD MajorD
Flashes of doubt they grow into a rage
  A chord diagramB minorBm                                   A chord diagramG+G
Locked out the truth, they keep your dreams at bay
 A chord diagramD MajorD
Don't stand there waitin' for the time to come
   A chord diagramB minorBm                              A chord diagramG+G
Come on, come on, catch me, we got miles to run


Chorus:
A chord diagramD MajorD
  We are alive our skin is leaving these bones
A chord diagramB minorBm                             A chord diagramG+G
Fire in the wind we're burning out of control
A chord diagramD MajorD
  We are the children chasing wondrous thrills
A chord diagramB minorBm                                A chord diagramG+G
Chasing a vision baby like we're running downhill

Tag:
A chord diagramD MajorD   A chord diagramD MajorD / A chord diagramE minorEm / A chord diagramB minorBm   A chord diagramG+G      x2


Verse 2:
A chord diagramD MajorD
 We tear these curtains open, feel the light
A chord diagramB minorBm                           A chord diagramG+G
Swim to the surface let our lungs ignite
A chord diagramD MajorD
 Slip past the guards before they raise the guns
     A chord diagramB minorBm                              A chord diagramG+G
Come on, come on, catch me, we got miles to run


Chorus:
A chord diagramD MajorD
  We are alive our skin is leaving these bones
A chord diagramB minorBm                             A chord diagramG+G
Fire in the wind we're burning out of control
A chord diagramD MajorD
  We are the children chasing wondrous thrills
A chord diagramB minorBm                                A chord diagramG+G
Chasing a vision baby like we're running downhill

Tag:
A chord diagramD MajorD   A chord diagramD MajorD / A chord diagramE minorEm / A chord diagramB minorBm   A chord diagramG+G      x2

Tag 2:
A chord diagramD MajorD   A chord diagramD MajorD   A chord diagramB minorBm   A chord diagramG+G      x2


Verse 3:
A chord diagramD MajorD
 Someday this body's gonna come to rest
    A chord diagramB minorBm                     A chord diagramG+G
But not till the very last beat of my chest
A chord diagramD MajorD
 These hills take longer than we think to get down
    A chord diagramB minorBm                              A chord diagramG+G                     A chord diagramD MajorD
So I'll get used to living with my feet off the ground


Chorus:
A chord diagramD MajorD
  We are alive our skin is leaving these bones
A chord diagramB minorBm                             A chord diagramG+G
Fire in the wind we're burning out of control
A chord diagramD MajorD
  We are the children chasing wondrous thrills
A chord diagramB minorBm                                A chord diagramG+G
Chasing a vision baby like we're running downhill

Tag:
A chord diagramD MajorD   A chord diagramD MajorD / A chord diagramE minorEm / A chord diagramB minorBm   A chord diagramG+G      x4

Almost there ...

Sign in to get your own page with links to favourite songs and more. You are just one click away...

Login with Facebook Login with Google