Log in

One click and you are in

Login with Facebook Login with Google

Why sign up and log in

Guitar Tabs Explorer
Necro guitar tabs for Morbid

Guitar tabs

-------------------------------------------------------------------------------
                           Morbid - Necro
-------------------------------------------------------------------------------
Tabbed by: istarii
E-mail: thompson.luke@mail.com
Tuning: Standard

  Intro
e|----------------------------------|------------------------------------|
B|----------------------------------|------------------------------------|
G|----------------------------------|------------------------------------|
D|-----2-----2----------------------|-----2-----2--------------------1-1-|
A|-2-----3-2--3-2-0---2---3---2---0-|-2-----3-2---3-2-0---2---3---2------|
E|----------------------------------|------------------------------------|


  Figure 1
e|----------------------------------|------------------------------------|
B|----------------------------------|------------------------------------|
G|----------------------------------|------------------------------------|
D|-----2-----2----------------------|-----2-----2-----------2----2-------|
A|-2-----3-2--3-2-0---2---3---2---0-|-2-----3-2---3-2-0-2-3---0-2--0-2-3-|
E|----------------------------------|------------------------------------|

                                                             End Figure 1
e|----------------------------------|------------------------------------|
B|----------------------------------|------------------------------------|
G|----------------------------------|------------------------------------|
D|-----2-----2----------------------|-----2-----2--------------------1-1-|
A|-2-----3-2--3-2-0---2---3---2---0-|-2-----3-2---3-2-0---2---3---2------|
E|----------------------------------|------------------------------------|


Intro
Verses: Figure 1 x2
Choruses: Figure 1 x1

************************************

| /   slide up
| \   slide down
| h   hammer-on
| p   pull-off
| ~   vibrato
| +   harmonic
| x   Mute note
| b   Bend
| pb  Pre-bend
| br  Bend release
| pbr Pre-bend release
| brb Bend release bend

************************************

Almost there ...

Sign in to get your own page with links to favourite songs and more. You are just one click away...

Login with Facebook Login with Google