Log in

One click and you are in

Login with Facebook Login with Google

Why sign up and log in

Guitar Tabs Explorer
Meshell Ndegeocello guitar tabs for Faithful

Guitar tabs

Tuning: Standard (E A D G B E)

Key: A chord diagramE MajorE

Difficulty: Novice

3:08                           3:18
e|-12(hold)--------------------12/---------------------------------------|
B|-----------------------------------------------------------------------|
G|-----------------------------------------------------------------------|
D|-----------------------------------------------------------------------|
A|-----------------------------------------------------------------------|
E|-----------------------------------------------------------------------|

3:23
e|-----------------------------------------------------------------------|
B|------------------15/--------------------------------------------------|
G|-------12-14b16-----------------14-12/11~(hold)--------12/up-----------|
D|-12-14----------------------------------------------14-----------------|
A|-----------------------------------------------------------------------|
E|-----------------------------------------------------------------------|

3:42
e|-----------------------------------------------------------------------|
B|-----------------------------------------------------------------------|
G|-14-12-14(hold)----12--12/up---------14-12-14---/up--------------------|
D|---------------------14------------------------------------------------|
A|-----------------------------------------------------------------------|
E|-----------------------------------------------------------------------|

3:54
e|-----------------------------------------------------------------------|
B|-----------------------------------------------------------------------|
G|-14~--12---------------------------------------------------------------|
D|---------14-12---------------------------------------------------------|
A|-----------------------------------------------------------------------|
E|-----------------------------------------------------------------------|

4:00
e|----12-12-----12b----------12-------------12-14b15--14-12-14-----12/---|
B|-15--------15-----15-12-15---------------------------------------------|
G|-----------------------------------------------------------------------|
D|-----------------------------------------------------------------------|
A|-----------------------------------------------------------------------|
E|-----------------------------------------------------------------------|

4:11
e|-----------------------------------------------------------------------|
B|-12-14-15-14-12----12-14-12----------12-----------------12-13-12-------|
G|----------------14----------14-12-14----12----12-14b16-----------------|
D|-------------------------------------------14--------------------------|
A|-----------------------------------------------------------------------|
E|-----------------------------------------------------------------------|

4:18
e|----------------------12(achieved with whammy pedal)-------------------|
B|-12--------------------------------------------------------------------|
G|----12-----------------------------------------------------------------|
D|-------14(hold)--------------------------------------------------------|
A|-----------------------------------------------------------------------|
E|-----------------------------------------------------------------------|


************************************


|/up Slide Up
|/   Slide Down
| b  Bend
| ~  Vibrato

************************************

Almost there ...

Sign in to get your own page with links to favourite songs and more. You are just one click away...

Login with Facebook Login with Google