Log in

One click and you are in

Login with Facebook Login with Google

Why sign up and log in

Guitar Tabs Explorer
Meshell Ndegeocello guitar tabs for Bitter

Guitar tabs

Bitter


Tuning: EADGAd


Main Riff

d-----0------0------0----------------------------|
A-----0------0------0----------------------------|
G----2-2----2-2----2-2-----2----2----------------|
D---0---0--0---0--0---0---0----0-----------------|
A--2------0------2------/4---/5------------------|
E--3------2--------------------------------------|


d------0-------0--------0------0------------------|
A------0-------0-------4-4----4-4-----------------|
G-----2-2-----2-2-----2---2--2---2----------------|
D----0---0---0---0--------------------------------|
A---2-------2--------2------2---------------------|
E---0-------0-------------------------------------|


Bridge

d-----2------4----------2/4-2-0-------------------|
A--4------0--------5----0------0-4----------------|
G--22-----44------0-0-----------------------------|
D--0-0----0-0----4---4----------------------------|
A--2------4-----5---------------------------------|
E-------------------------------------------------| x4

Almost there ...

Sign in to get your own page with links to favourite songs and more. You are just one click away...

Login with Facebook Login with Google