Search tabs and chords

Search for song, artist or band

Log in

One click and you are in

Login with Facebook Login with Google

Why sign up and log in

Guitar Tabs Explorer
Sitti Navarro bass tabs for I didnt know i was looking for love

I Didn't Know I Was Looking For Love bass tab by Sitti Navarro

Sitti Navarro bass tabs for I didnt know i was looking for love

Bass tabs

  • Tuning: Standard tuning
  • Difficulty: Novice
--------------------------------------------------------------------------
                            Artist - Sitti Navarro
                          *************************
                Song - I Didnt Know I Was Looking For Love
               ********************************************
                          Album - Caf?? Bossa (2006)
                         **************************
                            Tabbed By - Ayreon77
                           **********************
--------------------------------------------------------------------------
Tuning = Standard

00:14
G|-----------------|-----------------------|---------------------|-----------------|
D|-5------s--5-----|-5-7-----5-7-----7-6-5-|---------------5-6-7-|---------------7-|
A|----5--5\7---5-5-|-----7-7-----7-7-------|-5-5--5----5-5-------|-7-7--7----7-7---|
E|-----------------|-----------------------|--------3------------|---------5-------|


-----------------------------
00:27
VERSE 1
********
G|-----------------------|---------------|-----------------------|---------------|
D|-5---------------5-6-7-|-----5-7-----7-|-5---------------5-6-7-|-----5-7-----7-|
A|---5-5--5----5-5-------|-7-7-----7-7---|---5-5--5----5-5-------|-7-7-----7-7---|
E|----------3------------|---------------|----------3------------|---------------|


G|---------------|-----------------------|---------------|-------------------|
D|-5-----4-5-----|-5-7-----5-7-----7-6-5-|---------------|-5-7-----5-7-----7-|
A|---5-5-----5-5-|-----7-7-----7-7-------|-5-5--5----5-5-|-----7-7-----7-7---|
E|---------------|-----------------------|--------3------|-------------------|

-----------------------------
00:54
CHORUS
*******
G|-----------------------|---------------|-----------------------------------|
D|-5---------------5-6-7-|-----5-7-----7-|-5---------------5-7-----5-7-----7-|
A|---5-5--5----5-5-------|-7-7-----7-7---|---5-5--5----5-5-----7-7-----7-7---|
E|----------3------------|---------------|----------3------------------------|


G|--------------------|-------------------------------|
D|-5--------------5-7-|-----5-7-----5-7-----5-7-----7-|
A|---5-5--5---5-5-----|-7-7-----7-7-----7-7-----7-7---|
E|----------3---------|-------------------------------|


-----------------------------
01:17
VERSE 2
********
G|---------------------|-----------------|---------------------|--------------------|
D|-5-----4-5-----5-6-7-|---------------7-|-5-----4-5-----5-6-7-|----s---------7-6-5-|
A|---5-5-----5-5-------|-7-7--7----7-7---|---5-5-----5-5-------|-7-7\-----7-7-------|
E|---------------------|--------5--------|---------------------|------5-5-----------|


G|-------------------|--------------------|--------------|-------------------------|
D|-----4-5-----5-6-7-|--------------7-6-5-|-5---4-5--5---|-5-7--7------------7-6-5-|
A|-5-5-----5-5-------|-7-7--7---7-7-------|---5--------5-|--------7--7---7-7-------|
E|-------------------|--------5-----------|--------------|-------------5-----------|


-----------------------------
01:44
CHORUS
*******
G|-------------|-------------------|---------------|-------------------------|
D|-----4-5-----|-5-6-7-----5-7-----|-5-----4-5-----|-5-7-------s-------7-6-5-|
A|-5-5-----5-5-|-------7-7-----7-7-|---5-5-----5-5-|-----7-7--7\---7-7-------|
E|-------------|-------------------|---------------|-------------5-----------|


G|-------------------|---------------|-------------------|
D|-----4-5-----5-6-7-|-------s-------|-7-------s-------7-|
A|-5-5-----5-5-------|-7-7--7\---7-7-|---7-7--7\---7-7---|
E|-------------------|---------5-----|-----------5-------|


-----------------------------
02:07
VERSE 3
********
G|-----------------------|-----------------|---------------------|---------------------|
D|-5---------------5-6-7-|---------------7-|-5-----4-5-----5-6-7-|---------------7-6-5-|
A|---5-5--5----5-5-------|-7-7--7----7-7---|---5-5-----5-5-------|-7-7--7----7-7-------|
E|----------3------------|--------5--------|---------------------|--------5------------|


G|---------------------|--------------------|-------------------|-------------------|
D|-5-----4-5-----5-6-7-|--------------7-6-5-|-----4-5-----5-6-7-|-------------7-6-5-|
A|---5-5-----5-5-------|-7-7--7---7-7-------|-5-5-----5-5-------|-7-7-----7-7-------|
E|---------------------|--------5-----------|-------------------|-----5-5-----------|

                  Break
G|-------------|-----------------------|-------------|--------------------|
D|-----4-5-----|-5-7-----5-7-----7-6-5-|-----4-5-----|-5-7--------------7-|
A|-5-5-----5-5-|-----7-7-----7-7-------|-5-5-----5-5-|-----7-7--7---7-7---|
E|-------------|-----------------------|-------------|------------5-------|


-----------------------------
02:47
CHORUS/SOLO
************
G|---------------|-----------------------------|-------|--------------------|
D|-5-----4-5-----|-5-7----------------6-7------|-5-----|-5-7--------------7-|
A|---5-5-----5-5-|-----7-7--7----7-7-------7-5-|---5-5-|-----7-7--7---7-7---|
E|---------------|------------5----------------|-------|------------5-------|


G|---------------|-------------------|---------------------|
D|-5-----4-5-----|-5-7---------------|-5-7---------------7-|
A|---5-5-----5-5-|-----7-7--7----7-7-|-----7-7--7----7-7---|
E|---------------|------------5------|------------5--------|

03:10
G|-----------------|-----------------------|-------------|---------------------|
D|-5---------------|-5-7-------------7-6-5-|-----4-5-----|-5-7---------------7-|
A|---5-5--5----5-5-|-----7--7----7-7-------|-5-5-----5-5-|-----7-7--7----7-7---|
E|----------3------|----------5------------|-------------|------------5--------|


G|-----------------|-------------------|---------------------|
D|-5---------------|-5-7---------------|-5-7---------------7-|
A|---5-5--5----5-5-|-----7-7--7----7-7-|-----7-7--7----7-7---|
E|----------3------|------------5------|------------5--------|

03:33   Fade out...................................................................
G|-----------------|-----------------------|-------------|---------------------|
D|-5---------------|-5-7---------------7-5-|-----5-5-----|-5-7---------------7-|
A|---5-5--5----5-5-|-----7-7--7----7-7-----|-5-5-----5-5-|-----7-7--7----7-7---|
E|----------3------|------------5----------|-------------|------------5--------|

............................................................
G|-----------------|-----------------------|---------------|
D|-5---------------|-5-7---------------7-5-|---------------|
A|---5-5--5----5-5-|-----7-7--7----7-7-----|-5-5--5----5-5-|
E|----------3------|------------5----------|--------3------|


ENJOY.........

Almost there ...

Sign in to get your own page with links to favourite songs and more. You are just one click away...

Login with Facebook Login with Google