Guitar Tabs Explorer
Kate Nash bass tabs for Sister

Sister bass tab


Be the first to rate

Sister bass tab by Kate Nash

Bass tabs

Print
[Verse]

 00.05 ? 00.53
G|---------------------------------------------------------------------------|
D|---------------4-4-4-4-4-4-4-4----------------4-4-4-4-4-4-4-4--------------|
A|-6-6-6-6-4-4-4------------------6-6-6-6-4-4-4------------------------------|
E|---------------------------------------------------------------------------| x3

G|---------------------------------------------------------------------------|
D|---------------4-4-4-4-4-4-4-4---------------------------------------------|
A|-6-6-6-6-4-4-4------------------6-6-6-6-4-4-4------------------------------|
E|----------------------------------------------1-1-1-1---1-1-1----1-1--1-1--|


[Chorus]

00.53 ? 01.15
G|---------------------------------------------------------------------------|
D|---------------------------------------------------------------------------|
A|-6---6-6---6-6--4---4-4---4-4-----------------2---2-2---2-2----------------|
E|--------------------------------2---2-2---2-2------------------------------| x4


[Verse]

01.15 ? 01.57
G|---------------------------------------------------------------------------|
D|---------------------------------------------------------------------------|
A|-6---6-6---6-6--4---4-4---4-4-----------------2---2-2---2-2----------------|
E|--------------------------------2---2-2---2-2------------------------------| x8


[Chorus]

01.57 ? 02.19
G|---------------------------------------------------------------------------|
D|---------------------------------------------------------------------------|
A|-6---6-6---6-6--4---4-4---4-4-----------------2---2-2---2-2----------------|
E|--------------------------------2---2-2---2-2------------------------------| x4


[Verse]

02.19 ? 03.02
G|---------------------------------------------------------------------------|
D|---------------------------------------------------------------------------|
A|-6---6-6---6-6--4---4-4---4-4-----------------2---2-2---2-2----------------|
E|--------------------------------2---2-2---2-2------------------------------| x8


[Chorus]

03.02 ? 03.45
G|---------------------------------------------------------------------------|
D|---------------------------------------------------------------------------|
A|-6---6-6---6-6--4---4-4---4-4-----------------2---2-2---2-2----------------|
E|--------------------------------2---2-2---2-2------------------------------| x8


[Outro]

(Played quietly) ? 03.45 ? End.
G|---------------------------------------------------------------------------|
D|---------------------------------------------------------------------------|
A|-6---6-6---6-6--4---4-4---4-4-----------------2---2-2---2-2----------------|

Comment this song and these bass tabs

Do you have corrections, comments on the bass tabs, thoughts about the song or a message to the author? Write them below.