Guitar Tabs Explorer
Kate Nash guitar tabs for Rap for rejection

Rap For Rejection tab


Be the first to rate

Rap For Rejection tab by Kate Nash

Intro

Print

-------------------------------------------------------------------------------
                             RAP FOR REJECTION - Kate Nash
-------------------------------------------------------------------------------
Tabbed by: cesare_moon
E chord diagramEE-mail:

Album: Girl Talk
Year: 2013

Tuning: EADG

Verse ? 00.00 ? 00.19

G|------------------------------------------------------------|
D|------------------------------------------------------------|
A|--------------7--7------------------------7--7--------------|
E|-5x---5x---5-----------------5x---5x---5--------------------| x4

Chorus ? 00.19 ? 00.28

G|---------------------------------------------------------------------------|
D|---------------------------------------------------------------------------|
A|-0-0-0-0-7-7-7-7-0-0-0-0-7-7-7-7-0-0-0-0-7-7-7-7-0-0-0-0-7x-------7/1------|
E|---------------------------------------------------------------------------|

Verse ? 00.28 ? 00.46

G|------------------------------------------------------------|
D|------------------------------------------------------------|
A|--------------7--7------------------------7--7--------------|
E|-5x---5x---5-----------------5x---5x---5--------------------| x4

Chorus ? 00.46 ? 00.56

G|---------------------------------------------------------------------------|
D|---------------------------------------------------------------------------|
A|-0-0-0-0-7-7-7-7-0-0-0-0-7-7-7-7-0-0-0-0-7-7-7-7-0-0-0-0-7x-------7/1------|
E|---------------------------------------------------------------------------|

Verse ? 00.56 ? 01.14

G|------------------------------------------------------------|
D|------------------------------------------------------------|
A|--------------7--7------------------------7--7--------------|
E|-5x---5x---5-----------------5x---5x---5--------------------| x4

Chorus ? 01.14 ? 01.24

G|---------------------------------------------------------------------------|
D|---------------------------------------------------------------------------|
A|-0-0-0-0-7-7-7-7-0-0-0-0-7-7-7-7-0-0-0-0-7-7-7-7-0-0-0-0-7x-------7/1------|
E|---------------------------------------------------------------------------|

Verse ? 01.24 ? 01.52

G|------------------------------------------------------------|
D|------------------------------------------------------------|
A|--------------7--7------------------------7--7--------------|
E|-5x---5x---5-----------------5x---5x---5--------------------| x4

Chorus ? 01.52 ? 02.10

G|---------------------------------------------------------------------------|
D|---------------------------------------------------------------------------|
A|-0-0-0-0-7-7-7-7-0-0-0-0-7-7-7-7-0-0-0-0-7-7-7-7-0-0-0-0-7-7-7-7-----------|
E|---------------------------------------------------------------------------|

G|---------------------------------------------------------------------------|
D|---------------------------------------------------------------------------|
A|-0-0-0-0-7-7-7-7-0-0-0-0-7-7-7-7-0-0-0-0-7-7-7-7-0-0-0-0-7x-------7/1------|
E|---------------------------------------------------------------------------|

Outro ? 02.10 ? End.

G|------------------------------------------------------------|
D|------------------------------------------------------------|
A|--------------7--7------------------------7--7--------------|
E|-5x---5x---5-----------------5x---5x---5---------5x---------|

Thank you! :)

| /  slide up
| \  slide down
| h  hammer-on
| p  pull-off
| ~  vibrato
| +  harmonic
| x  Mute note

Comment this song and these intro

Do you have corrections, comments on the intro, thoughts about the song or a message to the author? Write them below.