Guitar Tabs Explorer
Kate Nash guitar tabs for Girl talk album

Girl Talk Album tab


Be the first to rate

Girl Talk Album tab by Kate Nash

Intro with lyrics

Print

-------------------------------------------------------------------------------
                             GIRL TALK (ALBUM) - Kate Nash
-------------------------------------------------------------------------------
Tabbed by: cesare_moon
E chord diagramEE-mail:

Album: Girl Talk
Year: 2013

Tuning: EADG

Tracklist ?

1.      Part Heart
2.      Fri-End?
3.      Death Proof
4.      Are You There Sweetheart?
5.      Sister
6.      Omygod!
7.      Oh
8.      All Talk
9.      Conventional Girl
10.     3AM
11.     Rap For Rejection
12.     Cherry Pickin?

No bass in tracks 13, 14 and 15.



1. PART HEART (Start immediately, play throughout ? gradually becoming louder)

G|-----------------------------------------------------|
D|-----------------------------------------------------|
A|-----------------------------------------------------|
E|-3-3-3-3-3-3-3-3-3-3-3-3-5-5-5-5-5-5-8-8-8-8-8-8-----| x24

G|-----------------------------------------------------|
D|-----------------------------------------------------|
A|-----------------------------------------------------|
E|-3~--------------------------------------------------|




2. FRI-END?

Intro ? 00.05 ? 00.10

G|---------------------------------------------------------------------------|
D|---------------------------------------------------------------------------|
A|----------------------------------------5--5--5----------------------------|
E|-0--0-0-5-5--0--0--0--5--5--0--0-0-5-5-----------5--0----------------------|

Verse ? 00.10 ? 00.54

G|---------------------------------------------------------------------------|
D|---------------------------------------------------------------------------|
A|----------------------------------------5--5--5----------------------------|
E|-0--0-0-5-5--0--0--0--5--5--0--0-0-5-5-----------5--0----------------------| x4

G|---------------------------------------------------------------------------|
D|---------------------------------------------------------------------------|
A|---------------------------------------------------------------------------|
E|-0--0-0-5-5--0--0--0--5--5--0--0-0-5-5--0--0--0--5--0----------------------| x4

Chorus ? 00.54 ? 01.16

G|---------------------------------------------------------------------------|
D|---------------------------------------------------------------------------|
A|----------------------------------------5--5--5----------------------------|
E|-0--0-0-5-5--0--0--0--5--5--0--0-0-5-5-----------5--0----------------------| x4

Verse ? 01.16 ? 01.38

G|---------------------------------------------------------------------------|
D|---------------------------------------------------------------------------|
A|---------------------------------------------------------------------------|
E|-0--0-0-5-5--0--0--0--5--5--0--0-0-5-5--0--0--0--5--0----------------------| x4

Chorus ? 01.38 ? 01.59

G|---------------------------------------------------------------------------|
D|---------------------------------------------------------------------------|
A|----------------------------------------5--5--5----------------------------|
E|-0--0-0-5-5--0--0--0--5--5--0--0-0-5-5-----------5--0----------------------| x4

Bridge ? 01.59 ? 02.43

G|---------------------------------------------------------------------------|
D|---------------------------------------------------------------------------|
A|---------------------------------------------------------------------------|
E|-0~--------5~---------0~-------5~-------0~------5~-----0~------5~----------| x3

G|---------------------------------------------------------------------------|
D|---------------------------------------------------------------------------|
A|---------------------------------------------------------------------------|
E|-0--0---5-5-5-5---0--0---5-5-5-5---0--0---5-5-5-5---0-0---5-5-5-5----------|

Chorus ? 02.43 ? End.

G|---------------------------------------------------------------------------|
D|---------------------------------------------------------------------------|
A|---------------------------------------------------------------------------|
E|-0--0---5-5-5-5---0--0---5-5-5-5---0--0---5-5-5-5---0-0---5-5-5-5----------| x4





3. DEATH PROOF

Intro Riff ? 00.03 ? 00.14

G|---------------------------------------------------------------------------|
D|---------------------------------------------------------------------------|
A|---------------------------------------------------------------------------|
E|-0---0-0-3-3-3-5--5--5-5-5---0---0-0-3-3-3-5--5--5-5-5---------------------|

G|---------------------------------------------------------------------------|
D|---------------------------------------------------------------------------|
A|---------------------------------------------------------------------------|
E|-0---0-0-3-3-3-5--5--5-5-5---0---0-0-3-3-3-5x------------------------------|

Verse ? 00.14 ? 00.32

G|---------------------------------------------------------------------------|
D|---------------------------------------------------------------------------|
A|---------------------------------------------------------------------------|
E|-0---0-0-3-3-3-5--5--5-5-5---0---0-0-3-3-3-5--5--5-5-5---------------------| x3

G|--------------------------------------|
D|--------------------------------------|
A|--------------------------------------|
E|-7---7--7-6--5--5-5-5x--------4-2-----|

Intro Riff ? 00.32 ? 00.43

G|---------------------------------------------------------------------------|
D|---------------------------------------------------------------------------|
A|---------------------------------------------------------------------------|
E|-0---0-0-3-3-3-5--5--5-5-5---0---0-0-3-3-3-5--5--5-5-5---------------------| x2

Chorus ? 00.43 ? 00.57

G|---------------------------------------------------------------------------|
D|---------------------------------------------------------------------------|
A|-0-0-0-0-0-0-0-0-0-0-0-0-0-0-0-0-5-5-5-5-5-5-5-5-3-3-3-3-3-3-3-3-----------|
E|---------------------------------------------------------------------------| x2

G|--------------------------------|
D|--------------------------------|
A|--------------------------------|
E|-0---0-0-3-3-5--5--5x-----------|

Intro Riff ? 00.57 ? 01.07

G|---------------------------------------------------------------------------|
D|---------------------------------------------------------------------------|
A|---------------------------------------------------------------------------|
E|-0---0-0-3-3-3-5--5--5-5-5---0---0-0-3-3-3-5--5--5-5-5---------------------| x2

Verse ? 01.07 ? 01.31

G|---------------------------------------------------------------------------|
D|---------------------------------------------------------------------------|
A|---------------------------------------------------------------------------|
E|-0---0-0-3-3-3-5--5--5-5-5---0---0-0-3-3-3-5--5--5-5-5---------------------| x4

G|-------------------------------------|
D|-------------------------------------|
A|-------------------------------------|
E|-6-6-6-6-6-6-6-6-5x-------4--2-------|

Intro Riff ? 01.31 ? 01.42

G|---------------------------------------------------------------------------|
D|---------------------------------------------------------------------------|
A|---------------------------------------------------------------------------|
E|-0---0-0-3-3-3-5--5--5-5-5---0---0-0-3-3-3-5--5--5-5-5---------------------| x2

Chorus ? 01.42 ? End.

G|---------------------------------------------------------------------------|
D|---------------------------------------------------------------------------|
A|-0-0-0-0-0-0-0-0-0-0-0-0-0-0-0-0-5-5-5-5-5-5-5-5-3-3-3-3-3-3-3-3-----------|
E|---------------------------------------------------------------------------| x2

G|--------------------------------|
D|--------------------------------|
A|--------------------------------|
E|-0---0-0-3-3-5--5--5x-----------|

G|---------------------------------------------------------------------------|
D|---------------------------------------------------------------------------|
A|---------------------------------------------------------------------------|
E|-0---0-0-3-3-3-5--5--5-5-5---0---0-0-3-3-3-5--5--5-5-5---------------------|

G|---------------------------------------------------------------------------|
D|---------------------------------------------------------------------------|
A|-0-0-0-0-0-0-0-0-0-0-0-0-0-0-0-0-5-5-5-5-5-5-5-5-3-3-3-3-3-3-3-3-----------|
E|---------------------------------------------------------------------------| x2

G|--------------------------------|
D|--------------------------------|
A|--------------------------------|
E|-0---0-0-3-3-5--5--5x-----------| x4





4. ARE YOU THERE SWEETHEART?

Intro ? 00.00 ? 00.29

G|---------------------------------------------------------------------------|
D|---------------------------------------------------------------------------| }
A|---------------------------------------------------------------------------| }
E|-7-----7---7-----3----5--------7-----7---7-----3----5----------------------| }
                                                                               } x2
G|---------------------------------------------------------------------------| }
D|---------------------------------------------------------------------------| }
A|---------------------------------------------------------------------------| }
E|-8-----7---7-----3----5--------8-----7---7-----3----5----------------------|

Verse ? 00.28 ? 00.59

G|---------------------------------------------------------------------------|
D|---------------------------------------------------------------------------| }
A|---------------------------------------------------------------------------| }
E|-7-----7---7-----3----5--------7-----7---7-----3----5----------------------| }
                                                                               } x2
G|---------------------------------------------------------------------------| }
D|---------------------------------------------------------------------------| }
A|---------------------------------------------------------------------------| }
E|-8-----7---7-----3----5--------8-----7---7-----3----5----------------------|

Chorus ? 00.59 ? 01.28

G|---------------------------------------------------------------------------|
D|---------------------------------------------------------------------------| }
A|---------------------------------------------------------------------------| }
E|-7-----7---7-----3----5--------7-----7---7-----3----5----------------------| }
                                                                               } x2
G|---------------------------------------------------------------------------| }
D|---------------------------------------------------------------------------| }
A|---------------------------------------------------------------------------| }
E|-8-----7---7-----3----5--------8-----7---7-----3----5----------------------|

Verse ? 01.28 ? 01.57

G|---------------------------------------------------------------------------|
D|---------------------------------------------------------------------------| }
A|---------------------------------------------------------------------------| }
E|-7-----7---7-----3----5--------7-----7---7-----3----5----------------------| }
                                                                               } x2
G|---------------------------------------------------------------------------| }
D|---------------------------------------------------------------------------| }
A|---------------------------------------------------------------------------| }
E|-8-----7---7-----3----5--------8-----7---7-----3----5----------------------|

Chorus ? 01.57 ? 02.27

G|---------------------------------------------------------------------------|
D|---------------------------------------------------------------------------| }
A|---------------------------------------------------------------------------| }
E|-7-----7---7-----3----5--------7-----7---7-----3----5----------------------| }
                                                                               } x2
G|---------------------------------------------------------------------------| }
D|---------------------------------------------------------------------------| }
A|---------------------------------------------------------------------------| }
E|-8-----7---7-----3----5--------8-----7---7-----3----5----------------------|

Bridge ? 02.27 ? 03.06

G|---------------------------------------------------------------------------|
D|---------------------------------------------------------------------------|
A|---------------------------------------------------------------------------|
E|-7---------------5----------------3---------------1------------------------| x4

Verse ? 03.06 ? 03.35

G|---------------------------------------------------------------------------|
D|---------------------------------------------------------------------------| }
A|---------------------------------------------------------------------------| }
E|-7-----7---7-----3----5--------7-----7---7-----3----5----------------------| }
                                                                               } x2
G|---------------------------------------------------------------------------| }
D|---------------------------------------------------------------------------| }
A|---------------------------------------------------------------------------| }
E|-8-----7---7-----3----5--------8-----7---7-----3----5----------------------|

Chorus ? 03.35 ? 04.05

G|---------------------------------------------------------------------------|
D|---------------------------------------------------------------------------| }
A|---------------------------------------------------------------------------| }
E|-7-----7---7-----3----5--------7-----7---7-----3----5----------------------| }
                                                                               } x2
G|---------------------------------------------------------------------------| }
D|---------------------------------------------------------------------------| }
A|---------------------------------------------------------------------------| }
E|-8-----7---7-----3----5--------8-----7---7-----3----5----------------------|

Bass Outro ? 04.05 ? End.

G|---------------------------------------------------------------------------|
D|---------------------------------------------------------------------------|
A|---------------------------------------------------------------------------|
E|-7-----7---7-----3----5--------7-----7---7-----3----5----------------------|

G|---------------------------------------------------------------------------|
D|---------------------------------------------------------------------------|
A|---------------------------------------------------------------------------|
E|-8-----7---7-----3----5--------8-----7---7-----3----5----------------------|

G|---------------------|
D|---------------------|
A|---------------------|
E|-7~------------------|




5. SISTER

Verse ? 00.05 ? 00.53

G|---------------------------------------------------------------------------|
D|---------------4-4-4-4-4-4-4-4----------------4-4-4-4-4-4-4-4--------------|
A|-6-6-6-6-4-4-4------------------6-6-6-6-4-4-4------------------------------|
E|---------------------------------------------------------------------------| x3

G|---------------------------------------------------------------------------|
D|---------------4-4-4-4-4-4-4-4---------------------------------------------|
A|-6-6-6-6-4-4-4------------------6-6-6-6-4-4-4------------------------------|
E|----------------------------------------------1-1-1-1---1-1-1----1-1--1-1--|

Chorus ? 00.53 ? 01.15

G|---------------------------------------------------------------------------|
D|---------------------------------------------------------------------------|
A|-6---6-6---6-6--4---4-4---4-4-----------------2---2-2---2-2----------------|
E|--------------------------------2---2-2---2-2------------------------------| x4

Verse ? 01.15 ? 01.57

G|---------------------------------------------------------------------------|
D|---------------------------------------------------------------------------|
A|-6---6-6---6-6--4---4-4---4-4-----------------2---2-2---2-2----------------|
E|--------------------------------2---2-2---2-2------------------------------| x8

Chorus ? 01.57 ? 02.19

G|---------------------------------------------------------------------------|
D|---------------------------------------------------------------------------|
A|-6---6-6---6-6--4---4-4---4-4-----------------2---2-2---2-2----------------|
E|--------------------------------2---2-2---2-2------------------------------| x4

Verse ? 02.19 ? 03.02

G|---------------------------------------------------------------------------|
D|---------------------------------------------------------------------------|
A|-6---6-6---6-6--4---4-4---4-4-----------------2---2-2---2-2----------------|
E|--------------------------------2---2-2---2-2------------------------------| x8

Chorus ? 03.02 ? 03.45

G|---------------------------------------------------------------------------|
D|---------------------------------------------------------------------------|
A|-6---6-6---6-6--4---4-4---4-4-----------------2---2-2---2-2----------------|
E|--------------------------------2---2-2---2-2------------------------------| x8

Outro (Played quietly) ? 03.45 ? End.

G|---------------------------------------------------------------------------|
D|---------------------------------------------------------------------------|
A|-6---6-6---6-6--4---4-4---4-4-----------------2---2-2---2-2----------------|
E|--------------------------------2---2-2---2-2------------------------------| x4


6. OMYGOD!

Intro ? 00.00 ? 00.16

G|---------------------------------------------------------------------------|
D|-------3----3-5----5-3-5-3------------3----3-5-3-5--3----------------------|
A|-1---1--------------------------1---1--------------------------------------|
E|---------------------------------------------------------------------------| x2

Verse ? 00.16 ? 00.47

G|---------------------------------------------------------------------------|
D|-------3----3-5----5-3-5-3------------3----3-5-3-5--3----------------------|
A|-1---1--------------------------1---1--------------------------------------|
E|---------------------------------------------------------------------------| x4

Chorus ? 00.47 ? 01.08

G|---------------------------------------------------------------------------|
D|---------------------------------------------------------------------------|
A|-1-1-1-1-1-1-1-1-5-5-5-5-5-5-5---------------------------------------------|
E|-------------------------------3-3-3-3-3-3-3-3-1-1-1-1-1-1-1-1-------------|

Intro Riff ? 01.08 ? 01.24

G|---------------------------------------------------------------------------|
D|-------3----3-5----5-3-5-3------------3----3-5-3-5--3----------------------|
A|-1---1--------------------------1---1--------------------------------------|
E|---------------------------------------------------------------------------| x2

Verse ? 01.24 ? 01.54

G|---------------------------------------------------------------------------|
D|-------3----3-5----5-3-5-3------------3----3-5-3-5--3----------------------|
A|-1---1--------------------------1---1--------------------------------------|
E|---------------------------------------------------------------------------| x4

Chorus ? 01.54 ? End.

G|---------------------------------------------------------------------------|
D|---------------------------------------------------------------------------|
A|-1-1-1-1-1-1-1-1-5-5-5-5-5-5-5---------------------------------------------|
E|-------------------------------3-3-3-3-3-3-3-3-1-1-1-1-1-1-1-1-------------| x3





7. OH

Verse ? 00.07 ? 00.18

G|------------------------------------------------------------------------------------|
D|------------------------------------------------------------------------------------|
A|------------------------------------------------------------------------------------|
E|-3~------7~------3~------7~------3~------7~------3~------7--7-7--7-7--7--7-7--7-7---|

Chorus ? 00.18 ? 00.38

G|---------------------------------------------------------|
D|---------------------------------------------------------|
A|-3---3-3-3-----------------------------------------------|
E|-----------3--3-3--3-3--3--3-3--3-3--3--3-3--3-3---------| x4

Verse ? 00.38 ? 01.01

G|---------------------------------------------------------------------------|
D|---------------------------------------------------------------------------|
A|---------------------------------------------------------------------------|
E|-3-3-3-3-7-7-7-7-3-3-3-3-7-7-7-7-3-3-3-3-7-7-7-7-3-3-3-3-7-7-7-7-----------|

G|---------------------------------------------------------------------------|
D|---------------------------------------------------------------------------|
A|---------------------------------------------------------------------------|
E|-3-3-3-3-7-7-7-7-3-3-3-3-7-7-7-7-3-3-3-3-7-7-7-7-3-3-3-3-------------------|

Chorus ? 01.01 ? 01.16

G|---------------------------------------------------------|
D|---------------------------------------------------------|
A|-3---3-3-3-----------------------------------------------|
E|-----------3--3-3--3-3--3--3-3--3-3--3--3-3--3-3---------| x4

Verse ? 01.16 ? 01.28

G|---------------------------------------------------------------------------|
D|---------------------------------------------------------------------------|
A|---------------------------------------------------------------------------|
E|-3-3-3-3-7-7-7-7-3-3-3-3-7-7-7-7-3-3-3-3-7-7-7-7-3-3-3-3-7-7-7-7-----------|

G|---------------------------------------------------------------------------|
D|---------------------------------------------------------------------------|
A|---------------------------------------------------------------------------|
E|-3-3-3-3-7-7-7-7-----------------------------------------------------------|

Chorus ? 01.28 ? 01.48

G|---------------------------------------------------------|
D|---------------------------------------------------------|
A|-3---3-3-3-----------------------------------------------|
E|-----------3--3-3--3-3--3--3-3--3-3--3--3-3--3-3---------| x4

Verse ? 01.48 ? 02.13

G|---------------------------------------------------------------------------|
D|---------------------------------------------------------------------------|
A|---------------------------------------------------------------------------|
E|-3-3-3-3-7-7-7-7-3-3-3-3-7-7-7-7-3-3-3-3-7-7-7-7-3-3-3-3-7-7-7-7-----------|

G|---------------------------------------------------------------------------|
D|---------------------------------------------------------------------------|
A|---------------------------------------------------------------------------|
E|-3-3-3-3-7-7-7-7-3-3-3-3-7-7-7-7-3-3-3-3-7-7-7-7-3-3-3-3-7-7-7-7-----------|

G|---------------------------------------------------------------------------|
D|---------------------------------------------------------------------------|
A|---------------------------------------------------------------------------|
E|-3-3-3-3-7-7-7-7-3-3-3-3-7-7-7-7-3-3-3-3-----------------------------------|

Chorus ? 02.13 ? 02.34

G|---------------------------------------------------------|
D|---------------------------------------------------------|
A|-3---3-3-3-----------------------------------------------|
E|-----------3--3-3--3-3--3--3-3--3-3--3--3-3--3-3---------| x4

Bridge ? 02.34 ? 02.56

G|---------------------------------------------------------|
D|---------------------------------------------------------|
A|-3---3-3-3-----------------------------------------------|
E|-----------3--3-3--3-3--3--3-3--3-3--3--3-3--3-3---------| x4

Chorus ? 02.56 ? End (Playing becomes softer)

G|---------------------------------------------------------|
D|---------------------------------------------------------|
A|-3---3-3-3-----------------------------------------------|
E|-----------3--3-3--3-3--3--3-3--3-3--3--3-3--3-3---------| x12




8. ALL TALK

Intro Riff ? 00.00 - 00.09

G|---------------------------------------------------------|
D|---------------------------------------------------------|
A|-1--1-2--2-2--1--1-2--2-2--1--1-2--2-2--1--1-2--2-2------|
E|---------------------------------------------------------| x2

Chorus ? 00.09 ? 00.28

G|---------------------------------------------------------|
D|---------------------------------------------------------|
A|-1--1-2--2-2--1--1-2--2-2--1--1-2--2-2--1--1-2--2-2------|
E|---------------------------------------------------------| x4

Verse ? 00.28 ? 00.38

G|---------------------------------------------------------|
D|---------------------------------------------------------|
A|---------------------------------------------------------|
E|-0--0--1-1-1-3--3-3--3-3---0--0--1-1-1-3--3-3--3-3-------| x2

Chorus ? 00.38 ? 00.57

G|---------------------------------------------------------|
D|---------------------------------------------------------|
A|-1--1-2--2-2--1--1-2--2-2--1--1-2--2-2--1--1-2--2-2------|
E|---------------------------------------------------------| x4

Verse - 00.57 ? 01.06

G|---------------------------------------------------------|
D|---------------------------------------------------------|
A|---------------------------------------------------------|
E|-0--0--1-1-1-3--3-3--3-3---0--0--1-1-1-3--3-3--3-3-------| x2

Chorus ? 01.06 ? 01.25

G|---------------------------------------------------------|
D|---------------------------------------------------------|
A|-1--1-2--2-2--1--1-2--2-2--1--1-2--2-2--1--1-2--2-2------|
E|---------------------------------------------------------| x4

Verse ? 01.25 ? 01.35

G|---------------------------------------------------------|
D|---------------------------------------------------------|
A|---------------------------------------------------------|
E|-0--0--1-1-1-3--3-3--3-3---0--0--1-1-1-3--3-3--3-3-------| x2

Chorus ? 01.35 ? 01.54

G|---------------------------------------------------------|
D|---------------------------------------------------------|
A|-1--1-2--2-2--1--1-2--2-2--1--1-2--2-2--1--1-2--2-2------|
E|---------------------------------------------------------| x4

Verse ? 01.54 - 02.03

G|---------------------------------------------------------|
D|---------------------------------------------------------|
A|---------------------------------------------------------|
E|-0--0--1-1-1-3--3-3--3-3---0--0--1-1-1-3--3-3--3-3-------| x2

Chorus ? 02.03 ? 02.57 (Tempo slows after the first four)

G|---------------------------------------------------------|
D|---------------------------------------------------------|
A|-1--1-2--2-2--1--1-2--2-2--1--1-2--2-2--1--1-2--2-2------|
E|---------------------------------------------------------| x12

Outro ? 02.57 ? End.

G|---------------------------------------------------------|
D|---------------------------------------------------------|
A|---------------------------------------------------------|
E|-0--0--1--1--3~-------------0--0--1--1--3~---------7/1---|

G|---------------------------------------------------------|
D|---------------------------------------------------------|
A|---------------------------------------------------------|
E|-0--0--1--1--3~-------------0--0--1--1--3~---------------|





9. UNCONVENTIONAL GIRL

Chorus ? 00.22 ? 00.47

G|---------------------------------------------------------------------------|
D|---------------------------------------------------------------------------|
A|-3-3-3-3-3-3-3-3-0-0-0-0-0-0-0-0-------------------------------------------|
E|---------------------------------1-1-1-1-1-1-1-1-3-3-3-3-3-3-3-3-----------| x4

G|--------------------------------------|
D|--------------------------------------|
A|--------------------------------------|
E|-3-3-3-3-3-3-3-3-3-3-3-3-3-3-3-3------|

Verse ? 00.47 ? 02.01

G|---------------------------------------------------------------------------|
D|---------------------------------------------------------------------------| }
A|-3-3-3-3-3-3-3-3-3-3-3-3-3-3-3-3-3-3-3-3-3-3-3-3-3-3-3-3-3-3-3-3-----------| }
E|---------------------------------------------------------------------------| }
                                                                               } x7
G|---------------------------------------------------------------------------| }
D|---------------------------------------------------------------------------| }
A|---------------------------------------------------------------------------| }
E|-1-1-1-1-1-1-1-1-1-1-1-1-1-1-1-1-3-3-3-3-3-3-3-3-3-3-3-3-3-3-3-3-----------|

Chorus ? 02.01 ? 02.48

G|---------------------------------------------------------------------------|
D|---------------------------------------------------------------------------|
A|-3-3-3-3-3-3-3-3-0-0-0-0-0-0-0-0-------------------------------------------|
E|---------------------------------1-1-1-1-1-1-1-1-3-3-3-3-3-3-3-3-----------| x8

G|--------------------------------------|
D|--------------------------------------|
A|--------------------------------------|
E|-3-3-3-3-3-3-3-3-3-3-3-3-3-3-3-3------|

Bridge/Guitar solo ? 02.48 - 03.31

G|---------------------------------------------------------------------------|
D|---------------------------------------------------------------------------| }
A|-3-3-3-3-3-3-3-3-3-3-3-3-3-3-3-3-3-3-3-3-3-3-3-3-3-3-3-3-3-3-3-3-----------| }
E|---------------------------------------------------------------------------| }
                                                                               } x4
G|---------------------------------------------------------------------------| }
D|---------------------------------------------------------------------------| }
A|---------------------------------------------------------------------------| }
E|-1-1-1-1-1-1-1-1-1-1-1-1-1-1-1-1-3-3-3-3-3-3-3-3-3-3-3-3-3-3-3-3-----------|

Chorus ? 03.31 ? End.

G|---------------------------------------------------------------------------|
D|---------------------------------------------------------------------------|
A|-3-3-3-3-3-3-3-3-0-0-0-0-0-0-0-0-------------------------------------------|
E|---------------------------------1-1-1-1-1-1-1-1-3-3-3-3-3-3-3-3-----------| x8

G|--------------------------------------|
D|--------------------------------------|
A|--------------------------------------|
E|-3-3-3-3-3-3-3-3-3-3-3-3-3-3-3-3------|



10. 3AM

Verse ? 00.02 ? 01.01

G|------------------------------------------------------------|
D|-------------3--3-3--3-3------------------------------------|
A|-3--3-3--3-3-------------7--7-7--7-7--5--5-5--5-5-----------|
E|------------------------------------------------------------| x16

Chorus ? 01.01 ? 01.32

G|------------------------------------------------------------|
D|-------------3--3-3--3-3------------------------------------|
A|-3--3-3--3-3-------------7--7-7--7-7--5--5-5--5-5-----------|
E|------------------------------------------------------------| x8

Verse ? 01.32 ? 02.15

G|------------------------------------------------------------|
D|-------------3--3-3--3-3------------------------------------|
A|-3--3-3--3-3-------------7--7-7--7-7--5--5-5--5-5-----------|
E|------------------------------------------------------------| x12

Chorus ? 02.15 - 02.47

G|------------------------------------------------------------|
D|-------------3--3-3--3-3------------------------------------|
A|-3--3-3--3-3-------------7--7-7--7-7--5--5-5--5-5-----------|
E|------------------------------------------------------------| x8

Outro ? 02.47 ? End. (Tempo slows)

G|------------------------------------------------------------|
D|-------------3--3-3--3-3------------------------------------|
A|-3--3-3--3-3-------------7--7-7--7-7--5--5-5--5-5-----------|
E|------------------------------------------------------------| x8




11. RAP FOR REJECTION

Verse ? 00.00 ? 00.19

G|------------------------------------------------------------|
D|------------------------------------------------------------|
A|--------------7--7------------------------7--7--------------|
E|-5x---5x---5-----------------5x---5x---5--------------------| x4

Chorus ? 00.19 ? 00.28

G|---------------------------------------------------------------------------|
D|---------------------------------------------------------------------------|
A|-0-0-0-0-7-7-7-7-0-0-0-0-7-7-7-7-0-0-0-0-7-7-7-7-0-0-0-0-7x-------7/1------|
E|---------------------------------------------------------------------------|

Verse ? 00.28 ? 00.46

G|------------------------------------------------------------|
D|------------------------------------------------------------|
A|--------------7--7------------------------7--7--------------|
E|-5x---5x---5-----------------5x---5x---5--------------------| x4

Chorus ? 00.46 ? 00.56

G|---------------------------------------------------------------------------|
D|---------------------------------------------------------------------------|
A|-0-0-0-0-7-7-7-7-0-0-0-0-7-7-7-7-0-0-0-0-7-7-7-7-0-0-0-0-7x-------7/1------|
E|---------------------------------------------------------------------------|

Verse ? 00.56 ? 01.14

G|------------------------------------------------------------|
D|------------------------------------------------------------|
A|--------------7--7------------------------7--7--------------|
E|-5x---5x---5-----------------5x---5x---5--------------------| x4

Chorus ? 01.14 ? 01.24

G|---------------------------------------------------------------------------|
D|---------------------------------------------------------------------------|
A|-0-0-0-0-7-7-7-7-0-0-0-0-7-7-7-7-0-0-0-0-7-7-7-7-0-0-0-0-7x-------7/1------|
E|---------------------------------------------------------------------------|

Verse ? 01.24 ? 01.52

G|------------------------------------------------------------|
D|------------------------------------------------------------|
A|--------------7--7------------------------7--7--------------|
E|-5x---5x---5-----------------5x---5x---5--------------------| x4

Chorus ? 01.52 ? 02.10

G|---------------------------------------------------------------------------|
D|---------------------------------------------------------------------------|
A|-0-0-0-0-7-7-7-7-0-0-0-0-7-7-7-7-0-0-0-0-7-7-7-7-0-0-0-0-7-7-7-7-----------|
E|---------------------------------------------------------------------------|

G|---------------------------------------------------------------------------|
D|---------------------------------------------------------------------------|
A|-0-0-0-0-7-7-7-7-0-0-0-0-7-7-7-7-0-0-0-0-7-7-7-7-0-0-0-0-7x-------7/1------|
E|---------------------------------------------------------------------------|

Outro ? 02.10 ? End.

G|------------------------------------------------------------|
D|------------------------------------------------------------|
A|--------------7--7------------------------7--7--------------|
E|-5x---5x---5-----------------5x---5x---5---------5x---------|




12. CHERRY PICKIN?

Chorus ? 00.04 ? 00.26

G|---------------------------------------------------------------------------|
D|---------------------------------------------------------------------------|
A|---------------------------------------------------------------------------|
E|-3-3-3-3-5-5-5-5-3-3-3-3-0-0-0-0-3-3-3-3-5-5-5-5-3-3-3-3-0-0-0-0-----------| x4

Refrain ? 00.26 ? 00.38

G|-----------------------------------------------------|
D|-----------------------------------------------------|
A|-----------------------------------------------------|
E|-0--0--0--2--3-3--3-3-4-5--5--5--5--3-3--3--3-2------| x2

Post-Chorus ? 00.38 - 00.49

G|---------------------------------------------------------------------------|
D|---------------------------------------------------------------------------|
A|---------------------------------------------------------------------------|
E|-0-0-0-0-3-3-3-3-5-5-5-5-3-3-3-3-0-0-0-0-3-3-3-3-5-5-5-5-3-3-3-3-----------| x2

Verse ? 00.49 ? 01.12

G|---------------------------------------------------------------------------|
D|---------------------------------------------------------------------------|
A|---------------------------------------------------------------------------|
E|-0-0-0-0-3-3-3-3-5-5-5-5-3-3-3-3-0-0-0-0-3-3-3-3-5-5-5-5-3-3-3-3-----------| x4

Refrain ? 01.12 ? 01.23

G|-----------------------------------------------------|
D|-----------------------------------------------------|
A|-----------------------------------------------------|
E|-0--0--0--2--3-3--3-3-4-5--5--5--5--3-3--3--3-2------| x2

Post-Chorus ? 01.23 ? 01.35

G|---------------------------------------------------------------------------|
D|---------------------------------------------------------------------------|
A|---------------------------------------------------------------------------|
E|-0-0-0-0-3-3-3-3-5-5-5-5-3-3-3-3-0-0-0-0-3-3-3-3-5-5-5-5-3-3-3-3-----------| x2

Verse ? 01.35 - 01.57

G|---------------------------------------------------------------------------|
D|---------------------------------------------------------------------------|
A|---------------------------------------------------------------------------|
E|-0-0-0-0-3-3-3-3-5-5-5-5-3-3-3-3-0-0-0-0-3-3-3-3-5-5-5-5-3-3-3-3-----------| x4

Refrain ? 01.57 ? 02.09

G|-----------------------------------------------------|
D|-----------------------------------------------------|
A|-----------------------------------------------------|
E|-0--0--0--2--3-3--3-3-4-5--5--5--5--3-3--3--3-2------| x2

Post-Chorus ? 02.09 ? 02.20

G|---------------------------------------------------------------------------|
D|---------------------------------------------------------------------------|
A|---------------------------------------------------------------------------|
E|-0-0-0-0-3-3-3-3-5-5-5-5-3-3-3-3-0-0-0-0-3-3-3-3-5-5-5-5-3-3-3-3-----------| x2

Chorus ? 02.20 ? 02.43

G|---------------------------------------------------------------------------|
D|---------------------------------------------------------------------------|
A|---------------------------------------------------------------------------|
E|-3-3-3-3-5-5-5-5-3-3-3-3-0-0-0-0-3-3-3-3-5-5-5-5-3-3-3-3-0-0-0-0-----------| x4

Refrain ? 02.43 ? End.

G|-----------------------------------------------------|
D|-----------------------------------------------------|
A|-----------------------------------------------------|
E|-0--0--0--2--3-3--3-3-4-5--5--5--5--3-3--3--3-2------|

G|-----------------------------------------------------|
D|-----------------------------------------------------|
A|-----------------------------------------------------|
E|-0--0--0--2--3-3--3-3-4-5--5--5--5--3-3--3--3-2--0x--|


13. LABYRINTH (No bass in this song)

14. YOU?RE SO COOL, I?M SO FREAKY (No bass in this song)

15. LULLABY FOR AN INSOMNIAC (No bass in this song)


Thank you! :)

| /  slide up
| \  slide down
| h  hammer-on
| p  pull-off
| ~  vibrato
| +  harmonic
| x  Mute note

Comment this song and these intro

Do you have corrections, comments on the intro, thoughts about the song or a message to the author? Write them below.