Guitar Tabs Explorer
Kate Nash bass tabs for Fri-end

Fri-end bass tab


Be the first to rate

Fri-end bass tab by Kate Nash

Bass tabs

Print
[Intro]

00.05 ? 00.10
G|---------------------------------------------------------------------------|
D|---------------------------------------------------------------------------|
A|----------------------------------------5--5--5----------------------------|
E|-0--0-0-5-5--0--0--0--5--5--0--0-0-5-5-----------5--0----------------------|


[Verse]

00.10 ? 00.54
G|---------------------------------------------------------------------------|
D|---------------------------------------------------------------------------|
A|----------------------------------------5--5--5----------------------------|
E|-0--0-0-5-5--0--0--0--5--5--0--0-0-5-5-----------5--0----------------------| x4

G|---------------------------------------------------------------------------|
D|---------------------------------------------------------------------------|
A|---------------------------------------------------------------------------|
E|-0--0-0-5-5--0--0--0--5--5--0--0-0-5-5--0--0--0--5--0----------------------| x4


[Chorus]

00.54 ? 01.16
G|---------------------------------------------------------------------------|
D|---------------------------------------------------------------------------|
A|----------------------------------------5--5--5----------------------------|
E|-0--0-0-5-5--0--0--0--5--5--0--0-0-5-5-----------5--0----------------------| x4


[Verse]

01.16 ? 01.38
G|---------------------------------------------------------------------------|
D|---------------------------------------------------------------------------|
A|---------------------------------------------------------------------------|
E|-0--0-0-5-5--0--0--0--5--5--0--0-0-5-5--0--0--0--5--0----------------------| x4


[Chorus]

01.38 ? 01.59
G|---------------------------------------------------------------------------|
D|---------------------------------------------------------------------------|
A|----------------------------------------5--5--5----------------------------|
E|-0--0-0-5-5--0--0--0--5--5--0--0-0-5-5-----------5--0----------------------| x4


[Bridge]

01.59 ? 02.43
G|---------------------------------------------------------------------------|
D|---------------------------------------------------------------------------|
A|---------------------------------------------------------------------------|
E|-0~--------5~---------0~-------5~-------0~------5~-----0~------5~----------| x3

G|---------------------------------------------------------------------------|
D|---------------------------------------------------------------------------|
A|---------------------------------------------------------------------------|
E|-0--0---5-5-5-5---0--0---5-5-5-5---0--0---5-5-5-5---0-0---5-5-5-5----------|


[Chorus]

02.43 ? End
G|---------------------------------------------------------------------------|
D|---------------------------------------------------------------------------|
A|---------------------------------------------------------------------------|
E|-0--0---5-5-5-5---0--0---5-5-5-5---0--0---5-5-5-5---0-0---5-5-5-5----------| x4


***********************************
| ~   vibrato

Comment this song and these bass tabs

Do you have corrections, comments on the bass tabs, thoughts about the song or a message to the author? Write them below.