Guitar Tabs Explorer
Kate Nash guitar tabs for All talk

All Talk tab


Be the first to rate

All Talk tab by Kate Nash

Intro

Print

-------------------------------------------------------------------------------
                             ALL TALK - Kate Nash
-------------------------------------------------------------------------------
Tabbed by: cesare_moon
E chord diagramEE-mail:

Album: Girl Talk
Year: 2013

Tuning: EADG

Intro Riff ? 00.00 - 00.09

G|---------------------------------------------------------|
D|---------------------------------------------------------|
A|-1--1-2--2-2--1--1-2--2-2--1--1-2--2-2--1--1-2--2-2------|
E|---------------------------------------------------------| x2

Chorus ? 00.09 ? 00.28

G|---------------------------------------------------------|
D|---------------------------------------------------------|
A|-1--1-2--2-2--1--1-2--2-2--1--1-2--2-2--1--1-2--2-2------|
E|---------------------------------------------------------| x4

Verse ? 00.28 ? 00.38

G|---------------------------------------------------------|
D|---------------------------------------------------------|
A|---------------------------------------------------------|
E|-0--0--1-1-1-3--3-3--3-3---0--0--1-1-1-3--3-3--3-3-------| x2

Chorus ? 00.38 ? 00.57

G|---------------------------------------------------------|
D|---------------------------------------------------------|
A|-1--1-2--2-2--1--1-2--2-2--1--1-2--2-2--1--1-2--2-2------|
E|---------------------------------------------------------| x4

Verse - 00.57 ? 01.06

G|---------------------------------------------------------|
D|---------------------------------------------------------|
A|---------------------------------------------------------|
E|-0--0--1-1-1-3--3-3--3-3---0--0--1-1-1-3--3-3--3-3-------| x2

Chorus ? 01.06 ? 01.25

G|---------------------------------------------------------|
D|---------------------------------------------------------|
A|-1--1-2--2-2--1--1-2--2-2--1--1-2--2-2--1--1-2--2-2------|
E|---------------------------------------------------------| x4

Verse ? 01.25 ? 01.35

G|---------------------------------------------------------|
D|---------------------------------------------------------|
A|---------------------------------------------------------|
E|-0--0--1-1-1-3--3-3--3-3---0--0--1-1-1-3--3-3--3-3-------| x2

Chorus ? 01.35 ? 01.54

G|---------------------------------------------------------|
D|---------------------------------------------------------|
A|-1--1-2--2-2--1--1-2--2-2--1--1-2--2-2--1--1-2--2-2------|
E|---------------------------------------------------------| x4

Verse ? 01.54 - 02.03

G|---------------------------------------------------------|
D|---------------------------------------------------------|
A|---------------------------------------------------------|
E|-0--0--1-1-1-3--3-3--3-3---0--0--1-1-1-3--3-3--3-3-------| x2

Chorus ? 02.03 ? 02.57 (Tempo slows after the first four)

G|---------------------------------------------------------|
D|---------------------------------------------------------|
A|-1--1-2--2-2--1--1-2--2-2--1--1-2--2-2--1--1-2--2-2------|
E|---------------------------------------------------------| x12

Outro ? 02.57 ? End.

G|---------------------------------------------------------|
D|---------------------------------------------------------|
A|---------------------------------------------------------|
E|-0--0--1--1--3~-------------0--0--1--1--3~---------7/1---|

G|---------------------------------------------------------|
D|---------------------------------------------------------|
A|---------------------------------------------------------|
E|-0--0--1--1--3~-------------0--0--1--1--3~---------------|

Thank you! :)

| /  slide up
| \  slide down
| h  hammer-on
| p  pull-off
| ~  vibrato
| +  harmonic
| x  Mute note

Comment this song and these intro

Do you have corrections, comments on the intro, thoughts about the song or a message to the author? Write them below.