Search tabs and chords

Search for song, artist or band

Log in

One click and you are in

Login with Facebook Login with Google

Why sign up and log in

Guitar Tabs Explorer
Johnny Nash bass tabs for I can see clearly now

I Can See Clearly Now bass tab by Johnny Nash

Johnny Nash bass tabs for I can see clearly now

Bass tabs

Tuning: Standard (E A D G)

Difficulty: Novice

INTRO

G||------------------------|------------------------|
D||------------------------|------------------------|
A||--5---------------------|--5---------------------|
E||---------------5--------|---------------5--------|
MAIN RIFF


G|-------------------|-----------------------|------------------------|------------------------|
D|-------4----7------|--5------------4--5--7-|------------------------|------------------------|
A|---5-------------5-|-----------------------|--5----5----------------|--5----5----------------|
E|-------------------|-----------------------|---------------5--5-----|---------------5--5-----|


G|-------------------------|-------------------------|---------------------|-------------------------|
D|----------------4--7-----|--5----------------------|---------------------|-------------------------|
A|--5----5-----5--------5--|----------------2--5-----|---------------------|-----7--------7----------|
E|-------------------------|-------------3-----------|--5---------0----0---|--5--------5-----5-------|


G|-------------------------|------------------------|------------------------|------------------------|
D|----------------4--7-----|--5------------4--5--7--|------------------------|------------------------|
A|--5----5-----5--------5--|------------------------|---5----5---------------|--5----5----------------|
E|-------------------------|------------------------|---------------5--5-----|---------------5--5-----|


G|-------------------|-----------------------|------------------------|------------------------|
D|-------------------|--5--------------------|------------------------|------------------------|
A|--3--------------3-|-----------------------|--5----5----------------|--5----5----------------|
E|-------------------|-----------------------|---------------5--5-----|---------------5--5-----|

G|------------------------|-----------------------|------------------------|-------------------------|
D|------------------------|--5--------------------|------------------------|-------------------------|
A|---3-----------------3--|-----------------------|--5----5----------------|--5----5-----------------|
E|------------------------|-----------------------|---------------5--5-----|---------------5--5------|


G|------------------------|------------------------|------------------------|-----------------------|
D|------------------------|------------------------|-----------------4--7---|--5------------4--5--7-|
A|--5---------------------|--5---------------------|---5------5--5--------5-|-----------------------|
E|---------------5--------|---------------5--------|-------5----------------|-----------------------|


G|------------------------|------------------------|-------------------------|-------------------------|
D|------------------------|------------------------|----------------4--7-----|--5----------------------|
A|--5----5----------------|--5----5----------------|--5----L-----5--------5--|----------------2--5-----|
E|---------------5--5-----|---------------5--5-----|-------------------------|-------------3-----------|


G|---------------------|-------------------------|-------------------------|------------------------|
D|---------------------|-------------------------|----------------4--7-----|--5------------4--5--7--|
A|---------------------|-----7--------7----------|--5----L-----5--------5--|------------------------|
E|--5---------0----0---|--5--------5-----5-------|-------------------------|------------------------|


G|------------------------|------------------------|-------------------|-----------------------|
D|------------------------|------------------------|-------------------|--5--------------------|
A|---5----5---------------|--5----5----------------|--3--------------3-|-----------------------|
E|---------------5--5-----|---------------5--5-----|-------------------|-----------------------|


G|------------------------|------------------------|------------------------|-----------------------|
D|------------------------|------------------------|------------------------|--5--------------------|
A|--5----5----------------|--5----5----------------|---3-----------------3--|-----------------------|
E|---------------5--5-----|---------------5--5-----|------------------------|-----------------------|


G|------------------------|-------------------------|
D|------------------------|-------------------------|
A|--5----5----------------|--5----5-----------------|
E|---------------5--5-----|---------------5--5------|


REFRAIN


G|--------------------|--------------------|-------------------|-------------------|-------------------|
D|--------------------|--------------------|-------------------|-------------------|-------------------|
A|--------------------|---3----------3---3-|-------------------|-------------------|-------------------|
E|--1-----------1--1--|-1----------3---3---|-1-----------1--1--|-1-----------1--1--|-1-3-1-0----0------|


G|-------------------|-------------------|-------------------|-------------------------------|
D|-------------------|-------------------|-------------------|-------------------------------|
A|-------------------|---------------3---|---5---------------|-------------------------------|
E|----0-------4----3-|---4----3----------|-------------------|-5-5-5-5-5---5-5--5--5-5-5-5-5-|


BACK TO MAIN RIFF


G|------------------|-----------------------|------------------------|------------------------|
D|---------4--7-----|--5------------4--5--7-|------------------------|------------------------|
A|-5----5--------5--|-----------------------|--5----5----------------|--5----5----------------|
E|------------------|-----------------------|---------------5--5-----|---------------5--5-----|


G|----------------------|-------------------------|---------------------|-------------------------|
D|-------------4--7-----|--5----------------------|---------------------|-------------------------|
A|--5-------5--------5--|----------------2--5-----|---------------------|-----7--------7----------|
E|----------------------|-------------3-----------|--5---------0----0---|--5--------5-----5-------|


G|-------------------------|------------------------|------------------------|------------------------|
D|----------------4--7-----|--5------------4--5--7--|------------------------|------------------------|
A|--5----------5--------5--|------------------------|---5----5---------------|--5----5----------------|
E|-------------------------|------------------------|---------------5--5-----|---------------5--5-----|


G|-------------------|-----------------------|------------------------|------------------------|
D|-------------------|--5--------------------|------------------------|------------------------|
A|--3--------------3-|-----------------------|--5----5----------------|--5----5----------------|
E|-------------------|-----------------------|---------------5--5-----|---------------5--5-----|

REPEAT TO END


G|------------------------|-----------------------|------------------------|-------------------------|
D|------------------------|--5--------------------|------------------------|-------------------------|
A|---3-----------------3--|-----------------------|--5----5----------------|--5----5-----------------|
E|------------------------|-----------------------|---------------5--5-----|---------------5--5------|

Almost there ...

Sign in to get your own page with links to favourite songs and more. You are just one click away...

Login with Facebook Login with Google