Log in

One click and you are in

Login with Facebook Login with Google

Why sign up and log in

Guitar Tabs Explorer
Napalm Death guitar tabs for None the wiser

Guitar tabs

NOTES:

h - hammer on              p - pull off
v - vibrato                b - bend string
^ - pinch harmonics        p.m. - palm mute
x - muted note             t - right hand tap
/ - slide up                - slide down
() - tremolo pick

Tune to A chord diagramC#C#
Riff 1 (x4)
-|----------------|----------------|
-|----------------|----------------|
-|----------------|----------------|
-|-2--2-----------|-3--3---------0-|
-|-2--2----22-2-0-|-3--3----22-2---|
-|-0--0--00-------|-1--1--00-------|


Riff 2 (under bass)
-|---------------------|--------------------|
-|---------------------|--------------------|
-|-----------------9-9-|-9-9----------------|
-|-----------11-11-8-8-|-8-8------11-11-----|
-|-2-2-------10-10-7-7-|-7-7------10-10-2-2-|
-|-0-0-----------------|----------------0-0-|


Riff 3 (x2)
-|------------------|------------------|------------------|------------------|
-|------------------|------------------|------------------|------------------|
-|---------000099---|---------000099---|---------000099---|---------000099---|
-|-------88------88-|-------88------88-|-------88------88-|-------88------88-|
-|-----77-----------|-----77-----------|-----77-----------|-----77-----------|
-|-0000-------------|-0000-------------|-0000-------------|-0000-------------|
 |                  |                  |                  |                  |
-|------------------|------------------|------------------|------------------|
-|------------------|------------------|------------------|------------------|
-|---------000099---|---------000099---|---------000099---|---------000099---|
-|-------88------88-|-------88------88-|-------88------88-|-------88------88-|
-|-----77-----------|-----77-----------|-----77-----------|-----77-----------|
-|-0000-------------|-0000-------------|-9999-------------|-9999-------------|

Riff 4 (x2)
-|-----------------------|----------------------|
-|-----------------------|----------------------|
-|-----------------------|----------------------|
-|-------------7-8-----5-|-------------7-8------|
-|-------------7-8-----5-|-------------7-8------|
-|-6-0-0-0-0-0-----9-6---|-6-0-0-0-0-0-----10-9-|
     . . . . .               . . . . .

-|-----------------------|----------------------|
-|-----------------------|----------------------|
-|-----------------------|----------------------|
-|-------------7-8-----5-|-------------7-8------|
-|-------------7-8-----5-|-------------7-8----8-|
-|-6-0-0-0-0-0-----9-6---|-6-0-0-0-0-0-----10---|
  . . . . .               . . . . .


Riff 5 (x2)
-|-------------------------|-------------------------|
-|-------------------------|-------------------------|
-|-------------------------|-------------------------|
-|-------------------------|-------------------------|
-|-4-----------------------|-2-----------------------|
-|-0-----------------------|-------------------------|
 |                         |                         |
-|-------------------------|-------------------------|
-|-------------------------|-------------------------|
-|-------------------------|-------------------------|
-|-------------------------|-------------------------|
-|------8p7----------------|------8p7----------------|
-|-7p000---00-10p700-5h700-|-7p000---00-10p700-5h700-|

-|-------------------------|-------------------------|
-|-------------------------|-------------------------|
-|-------------------------|-------------------------|
-|-------------------------|-5-----------------------|
-|-------------------------|-------------------------|
-|-3-----------------------|-------------------------|
 |                         |                         |
-|-------------------------|-------------------------|
-|-------------------------|-------------------------|
-|-------------------------|-------------------------|
-|-------------------------|-------------------------|
-|------8p7----------------|------8p7----------------|
-|-7p000---00-10p700-5h700-|-7p000---00-10p700-5h700-|


Riff 6 (x2)
-|----------------------------|----------------------------|
-|----------------------------|----------------------------|
-|----------------------------|----------------------------|
-|-11p9--15p14--11p9----7h9---|-11p9--15p14--11p9----------|
-|----------------------------|----------------------7h9---|
-|-----00-----00-----00----00-|-----00-----00-----00----00-|
 |                            |                            |
-|----------------------------|----------------------------|
-|----------------------------|----------------------------|
-|----------------------------|----------------------------|
-|----------------------------|----------------------------|
-|---------8p7----------------|---------8p7----------------|
-|-7p0-00-----00-10p700-5h700-|-7p0-00-----00-10p700-5h700-|


Riff 7 (x8)
-|---------------------------|
-|---------------------------|
-|---------------------------|
-|------109-----------------|
-|-9-----87----9-----7/9----|
-|-7-00-----00-7-00-5/7-00-|

Play Riff 1 (x2)
Play Riff 3 (x2)
Play Riff 4 (x4)
Play Riff 5 (x2)
Play Riff 6 (x2)
Play Riff 7 (x8)


Riff 8 (x8)
-|------------------|------------------|
-|------------------|------------------|
-|------------------|------------------|
-|-----------0000---|---------------55-|
-|-----------555544-|-4444444444-------|
-|-4444444444-------|-----------4444---|


Riff 9 (x4)
-|--------------------|-------------------------|
-|--------------------|-------------------------|
-|--------------------|-------------------------|
-|--------------------|-------------------------|
-|-3------3----6-3----|-990000-(12)----(12)-----|
-|-1-0000-1-00-4-1-00-|------------(10)----(10)-|

Play Riff 8 (x4)
Play Riff 9 (x4)
Play Riff 1 (x4)

|-----|
|-----|
|-2-2-|
|-0-0-|

END OF SONG

↓ Add and view comments below ↓

What do you think about this song and these tabs?

Add your comments, questions, rant or a thumbs up below.

Almost there ...

Sign in to get your own page with links to favourite songs and more. You are just one click away...

Login with Facebook Login with Google