Log in

One click and you are in

Login with Facebook Login with Google

Why sign up and log in

Guitar Tabs Explorer
Napalm Death guitar tabs for More than meets the eye

Guitar tabs with lyrics

Napalm Death
Fear, Emptiness, Despair
More Than Meets The Eye

Copyright (c) Earache Records 1994
Version 1.0 - 31.12.06

Transcribed By: Yaniv D.
.  - palm mute           /  - slide up to
\  - slide down to       ~  - vibrato
h  - hammer on           b  - Bend
p  - pull off            Suffixes for bend
t  - tap                 f  - full bend    h - half bend
ph - pinched harmonic    q  - quarter bend t - tap bend
*  - see comment         ^  - Hold bend    r release bend
x  - Dead Note           ~  - vibrato bend
,  - slight palm mute    () - ghost note, sustained note
"  - tremolo note        <> - Trill


Tuning is A chord diagramC#C# standard



Intro x1
|L (Riff A chord diagramA majorA)
|-------------------------------------------------------------------|
|-------------------------------------------------------------------|
|-------------------------------------------------------------------|
|-----------------------------4-5-----------------------------------|
|---5\4---4-4---3-3---3-3-----2-3---5\4---4-4---3-3---3-3-----5-6---|
|-0-3\2-0-2-2-0-1-1-0-1-1-0-0-----0-3\2-0-2-2-0-1-1-0-1-1-0-0-3-4---|
| ,     ,     ,     ,     , ,     ,     ,     ,     ,     , ,
|R
|-------------------------------------------------------------------|
|-------------------------------------------------------------------|
|-------------------------------------------------------------------|
|-----------------------------4-5-----------------------------------|
|-----------------------------2-3-----------------------------5-6---|
|-------------------------------------------------------------3-4---|

Riff A chord diagramA majorA x7


Riff A chord diagramBB x4
|-----------------------------------------------------------------|
|-----------------------------------------------------------------|
|-----------------------------------------------------------------|
|-------6-5---------6-5-----------------6-5---------6-5-----------|
|-4-5---4-3---4-5---4-3---3/6-3---4-5---4-3---4-5---4-3---3---6---|
|-2-3-0-----0-2-3-0-----0-1/4-1---2-3-0-----0-2-3-0-----0-1---4---|
      ,     ,     ,     .             ,     ,     ,     .


Riff A chord diagramA majorA x4

Riff A chord diagramBB x4

Part A chord diagramA majorA x2
|L
|-------------------------------------------------------------------|
|-------------------------------------------------------------------|
|-0000000000000000000000000000000000000000000000000000000000000000--|
|-5555555555555555555555555555555555555555555555555555555555555555--|
|-------------------------------------------------------------------|
|-------------------------------------------------------------------|
|
|R (let chords ring)
|-------------------------------------------------------------------|
|-------------------------------------------------------------------|
|-------------------------------------------------------------------|
|-3-------------------------------3---------------------------------|
|-3-------------------------------3---------------------------------|
|-1-------------------------------1---------------------------------|

|L
|-------------------------------------------------------------------|
|-------------------------------------------------------------------|
|-0000000000000000000000000000000000000000000000000000000000000000--|
|-4444444444444444444444444444444444444444444444444444444444444444--|
|-------------------------------------------------------------------|
|-------------------------------------------------------------------|
|
|R (let chords ring)
|-------------------------------------------------------------------|
|-------------------------------------------------------------------|
|-------------------------------------------------------------------|
|-2-------------------------------2---------------------------------|
|-2-------------------------------2---------------------------------|
|-0-------------------------------0---------------------------------|



Riff A chord diagramC majorC x2
|                                x2|                                x2|
|----------------------------------|----------------------------------|
|----------------------------------|----------------------------------|
|----------------------------------|----------------------------------|
|---------55--------55----55555555-|---------44--------44----44444444-|
|----------------------------------|----------------------------------|
|-11111111--11111111--1111---------|-00000000--00000000--0000---------|


Riff A chord diagramD MajorD x4
|-------------------------|
|-------------------------|
|-------------------------|
|-------------------10\---|
|-3-----2-3-----2---8-\---|
|-1---000-1---000---------|
      ..      ..


Part A chord diagramBB x1
|L
|-------------------------------------------------------------------|
|-------------------------------------------------------------------|
|-0000000000000000000000000000000000000000000000000000000000000000--|
|-5555555555555555555555555555555544555555555555555555555555555555--|
|-------------------------------------------------------------------|
|-------------------------------------------------------------------|
|
|R
|---------------------------------|---------------------------------|
|------Riff D---------------------|-Riff D--------------------------|
|---------------------------------|---------------------------------|
|---------------------------------|---------------------------------|
|---------------------------------|---------------------------------|
|---------------------------------|---------------------------------|

|L
|-------------------------------------------------------------------|
|-------------------------------------------------------------------|
|-0000000000000000000000000000000000000000000000000000000000000000--|
|-4444444444444444444444444444444444444444444444444444444444444444--|
|-------------------------------------------------------------------|
|-------------------------------------------------------------------|
|
|R (let chords ring)
|---------------------------------|---------------------------------|
|------Riff D---------------------|-Riff D--------------------------|
|---------------------------------|---------------------------------|
|---------------------------------|---------------------------------|
|---------------------------------|---------------------------------|
|---------------------------------|---------------------------------|


Riff A chord diagramC majorC x2

Section End x1
|-----------------|
|-----------------|
|-----------------|
|-2--let ring-----|
|-2---------------|
|-0---------------|


Intro  x1

Riff A chord diagramA majorA x3

Riff A chord diagramBB x4

Last 2 times Riff A chord diagramBB is played, a third guitar plays this
|------------------------------------------------------------------|
|-5555555555-fade-55555555555-fade-5555555555-fade--5--ring--------|
|------------------------------------------------------------------|
|------------------------------------------------------------------|
|-*last note is hit together with the end of the song (see below)--|
|------------------------------------------------------------------|

End song with
|L
|-----------------------------------------|
|-----------------------------------------|
|-0000000000000000000000000-fade out------|
|-5555555555555555555555555 fade out------|
|-----------------------------------------|
|-----------------------------------------|
|
|R
|-----------------------------------------|
|-----------------------------------------|
|-----------------------------------------|
|-3-let ring------------------------------|
|-3-let ring------------------------------|
|-1-let ring------------------------------|

↓ Add and view comments below ↓

What do you think about this song and these tabs?

Add your comments, questions, rant or a thumbs up below.

Almost there ...

Sign in to get your own page with links to favourite songs and more. You are just one click away...

Login with Facebook Login with Google