Log in

One click and you are in

Login with Facebook Login with Google

Why sign up and log in

Guitar Tabs Explorer
Naomi Kawashima bass tabs for Ash wednesday

Bass tabs

Tuning: Standard (E A D G)

♫ Intro:
G|----------------| x7
D|----------------|
A|-5-5-0-0-2-3-2-0|
E|----------------|
G|--------------|
D|--------------|
A|-3-3-3-3-3--0-|
E|--------------|

♫ Verse 1:
G|---------------|-----------------|---------------|---------------|
D|---------------|-----------------|-7-----7------7|-9---7-9--7-5-4|
A|-5-----5------5|-7/9---7-9----7-9|---7-9----7-9--|---9-----------|
E|---5-7----5-7--|-----9------9----|---------------|---------------|

G|---------------|---------------|---------------|--------------|
D|---------------|-5-----5------5|-7-----7-------|--------------|
A|-7---5-7----5-7|---5-7----5-7--|---7-9----9-7\-|-3-3-3-3-3--0-|
E|---7------7----|---------------|---------------|--------------|

G|---------------|-----------------|---------------|---------------|
D|---------------|-----------------|-7-----7------7|-9---7-9--7-5-4|
A|-5-----5------5|-7/9---7-9----7-9|---7-9----7-9--|---9-----------|
E|---5-7----5-7--|-----9------9----|---------------|---------------|

G|---------------|---------------|---------------|----------------|
D|---------------|-5-----5------5|-7-----7-------|----------------|
A|-7---5-7----5-7|---5-7----5-7--|---7-9----9-7\-|-0-0-0-0-0-2-4-0|
E|---7------7----|---------------|---------------|----------------|

♫ Pre-Chorus:
G|----------------|----------------| x2
D|----------------|----------------|
A|-5-5-5-5--------|----------------|
E|---------8-8-8-8|-7-7-7-7-6-6-6-6|

G|----------------|---------------|
D|----------------|---------------|
A|----------------|----2-2-----0-0|
E|-5-5-5-5-5-5-5-5|-5------2-2----|

♫ Chorus:
G|--------------|--------------|--------------|---------------|
D|--------------|--------------|--------------|---------------|
A|-5-5----5-5--5|--------------|-7-7----7-7---|------7-----4--|
E|------5-------|-5-5--0-5-5--0|------7------7|-5-5----5-7---5|

G|--------------|--------------|--------------|------------|
D|--------------|--------------|--------------|----------7-|
A|-5-5----5-5--5|--------------|-7-7----7-7---|--------7---|
E|------5-------|-5-5--0-5-5--0|------7------7|-8---5------|

G|------------|-----------|-------------|--------------|
D|------------|-----------|-------------|--------------|
A|------------|-----------|-5-5-------5-|-3-3-3-3-3--0-|
E|-7---7-7---7|-5---5-5---|------5--5---|--------------|

♫ Verse 2:
G|---------------|-----------------|---------------|---------------|
D|---------------|-----------------|-7-----7------7|-9---7-9--7-5-4|
A|-5-----5------5|-7/9---7-9----7-9|---7-9----7-9--|---9-----------|
E|---5-7----5-7--|-----9------9----|---------------|---------------|

G|---------------|---------------|---------------|--------------|
D|---------------|-5-----5------5|-7-----7-------|--------------|
A|-7---5-7----5-7|---5-7----5-7--|---7-9----9-7\-|-3-3-3-3-3--0-|
E|---7------7----|---------------|---------------|--------------|

G|---------------|-----------------|---------------|---------------|
D|---------------|-----------------|-7-----7------7|-9---7-9--7-5-4|
A|-5-----5------5|-7/9---7-9----7-9|---7-9----7-9--|---9-----------|
E|---5-7----5-7--|-----9------9----|---------------|---------------|

G|---------------|---------------|---------------|----------------|
D|---------------|-5-----5------5|-7-----7-------|----------------|
A|-7---5-7----5-7|---5-7----5-7--|---7-9----9-7\-|-0-0-0-0-0-2-4-0|
E|---7------7----|---------------|---------------|----------------|

♫ Pre-Chorus:
G|----------------|----------------| x2
D|----------------|----------------|
A|-5-5-5-5--------|----------------|
E|---------8-8-8-8|-7-7-7-7-6-6-6-6|

G|----------------|---------------|
D|----------------|---------------|
A|----------------|----2-2-----0-0|
E|-5-5-5-5-5-5-5-5|-5------2-2----|

♫ Chorus:
G|--------------|--------------|--------------|--------------|
D|--------------|--------------|--------------|--------------|
A|-5-5----5-5--5|--------------|-7-7----7-7---|-----------4--|
E|------5-------|-5-5--0-5-5--0|------7------7|-5-5--5--7---5|

G|--------------|--------------|--------------|------------|
D|--------------|--------------|--------------|------------|
A|-5-5----5-5--5|--------------|-7-7----7-7---|------------|
E|------5-------|-5-5--0-5-5--0|------7------0|-8---5--5-5-|

G|------------|-----------|-------------|--------------|
D|------------|-----------|-------------|--------------|
A|------------|-----------|-5-5-------5-|-3-3-3-3-3--0-|
E|-7---7-7---7|-5---5-5---|------5--5---|--------------|

♫ Solo:
G|---------------|-----------------|---------------|---------------|
D|---------------|-----------------|-7-----7------7|-9---7-9--7-5-4|
A|-5-----5------5|-7/9---7-9----7-9|---7-9----7-9--|---9-----------|
E|---5-7----5-7--|-----9------9----|---------------|---------------|

G|---------------|---------------|---------------|----------------|
D|---------------|-5-----5------5|-7-----7-------|----------------|
A|-7---5-7----5-7|---5-7----5-7--|---7-9----9-7\-|-0-0-0-0-0-2-4-0|
E|---7------7----|---------------|---------------|----------------|

♫ Pre-Chorus:
G|----------------|----------------| x2
D|----------------|----------------|
A|-5-5-5-5--------|----------------|
E|---------8-8-8-8|-7-7-7-7-6-6-6-6|

G|----------------|---------------|
D|----------------|---------------|
A|----------------|----2-2-----0-0|
E|-5-5-5-5-5-5-5-5|-5------2-2----|

♫ Chorus:
G|--------------|--------------|--------------|---------------|
D|--------------|--------------|--------------|---------------|
A|-5-5----5-5--5|--------------|-7-7----7-7---|------7-----4--|
E|------5-------|-5-5--0-5-5--0|------7------7|-5-5----5-7---5|

G|--------------|--------------|--------------|------------|
D|--------------|--------------|--------------|------------|
A|-5-5----5-5--5|--------------|-7-7----7-7---|------------|
E|------5-------|-5-5--0-5-5--0|------7------0|-8---5--5-5-|

G|------------|--------------|
D|------------|--------------|
A|------------|-------------4|
E|-7---7-7---7|-5---5-5-5-7--|

♫ Interlude:
G|----------------| x8
D|----------------|
A|-5-5-0-0-2-3-2-0|
E|----------------|

Chorus/Including ♫ Outro:
G|--------------|--------------|--------------|---------------|
D|--------------|--------------|--------------|---------------|
A|-5-5----5-5--5|--------------|-7-7----7-7---|------------4--|
E|------5-------|-5-5--0-5-5--0|------7------7|-5-5--5-5-7---5|

G|--------------|--------------|--------------|------------|
D|--------------|--------------|--------------|------------|
A|-5-5----5-5--5|--------------|-7-7----7-7---|------------|
E|------5-------|-5-5--0-5-5--0|------7------0|-8---5--5-5-|

G|--------------|---------------|
D|--------------|---------------|
A|--------------|------------4--|
E|-7-7--7-7-7--7|-5-5--5-5-7---5|

G|--------------|--------------|--------------|--------------|
D|--------------|--------------|--------------|--------------|
A|-5-5----5-5--5|--------------|-7-7----7-7---|-----------4--|
E|------5-------|-5-5--0-5-5--0|------7------7|-5-5--5--7---5|

G|--------------|--------------|--------------|------------|
D|--------------|--------------|--------------|------------|
A|-5-5----5-5--5|--------------|-7-7----7-7---|------------|
E|------5-------|-5-5--0-5-5--5|------7------0|-8---5--5-5-|

G|--------------|---------------|
D|--------------|---------------|
A|--------------|------------4--|
E|-7-7--7-7-7--7|-5-5--5-5-7---5|

G|--------------|--------------|--------------|--------------|
D|--------------|--------------|--------------|--------------|
A|-5-5----5-5--5|--------------|-7-7----7-7---|-----------4--|
E|------5-------|-5-5--0-5-5--5|------7------7|-5-5--5--7---5|

G|--------------|--------------|--------------|------------|
D|--------------|--------------|--------------|------------|
A|-5-5----5-5--5|--------------|-7-7----7-7---|------------|
E|------5-------|-5-5--0-5-5--5|------7------0|-8---5--5-5-|

G|--------------|---------------| fade out
D|--------------|---------------|
A|--------------|------------4--|
E|-7-7--7-7-7--7|-5-5--5-5-7---5|


************************************

| / Slide up
| \ Slide down

************************************

Almost there ...

Sign in to get your own page with links to favourite songs and more. You are just one click away...

Login with Facebook Login with Google