Log in

One click and you are in

Login with Facebook Login with Google

Why sign up and log in

Guitar Tabs Explorer
Naomi Kawashima bass tabs for 0467

Bass tabs

Tuning: Standard (E A D G)


Intro:
G|--------------|-----7/9--7/9-7\-|--------------|-----------------|
D|--------------|-----------------|--------------|-----7/9--7/9-7\-|
A|-----------5/7|-5---------------|-----------5/7|-5---------------|
E|-3---5-6------|-----------------|-3---5-6------|-----------------|

G|--------------|-----7/9--7/9-7\-|--------------|---------|
D|--------------|-----------------|--------------|---------|
A|-----------5/7|-5---------------|-----------3/5|-3-------|
E|-3---5-6------|-----------------|-3---5-6------|---------|
Verse 1:
G|------------|------------|------------|-------------|
D|------------|------------|------------|-------------|
A|-5---5-5---0|-5---5-5---0|-7---7-7----|-7-----------|
E|------------|------------|-----------7|-----7-0-2-3-|

G|------------|------------|---------------|----------------|
D|------------|------------|---------------|---------7/9-\7-|
A|------------|------------|-5---5-5--4----|----------------|
E|-5---5-5---0|-5---5-5---5|------------5/7|-5---5-5--------|

G|------------|------------|------------|-------------|
D|------------|------------|------------|-------------|
A|-5---5-5---0|-5---5-5---0|-7---7-7----|-7-----------|
E|------------|------------|-----------7|-----7-0-2-3-|

G|------------|------------|------------|-------------|
D|------------|------------|------------|-------------|
A|-----------7|-----------7|-5---5-5---0|-5---5-5-0-5-|
E|-5---5-5----|-5---5-5----|------------|-------------|

Pre-Chorus:
G|------------|-------------|----------|----------|
D|------------|-5-----/7-\5-|----------|----------|
A|---------3/5|-------------|-5-------5|-6-------6|
E|-3----------|-------------|----------|----------|

G|--------17/19------|------------|----------------|-----------------|
D|--------------17---|------------|----------------|---------9-7\----|
A|-7---------------19|------------|----------------|---7/9-7-------0-|
E|---0---------------|-0-----2-3-4|-5-5-5-5-5-5-5-5|-5---------------|


Chorus:
G|------------|---------------|------------|---------5/7----|
D|------------|-------5/7\----|------------|-------------7\-|
A|-5---5-5---5|-4---4-------4-|-2---2-2---2|-0---0-0--------|
E|------------|---------------|------------|----------------|

G|------------|------------|------------|-----------------|
D|------------|------------|------------|---------9-7\----|
A|------------|------------|-5---5-5---5|---7/9-7-------0-|
E|-3---3-3---3|-3---3-3---3|------------|-5---------------|

G|------------|---------------|------------|-----5/7-------|
D|------------|-------5/7\----|------------|----------7----|
A|-5---5-5---5|-4---4-------4-|-2---2-2---2|-0-------------|
E|------------|---------------|------------|------------5\-|

G|------------|------------|------------|---------------|
D|------------|------------|------------|-----7/10--7---|
A|------------|------------|-5---5-5---5|-6-----------9-|
E|-3---3-3---3|-3---3-3---3|------------|---------------|

G|------------|----------|------------|---------|
D|------------|----------|------------|---------|
A|-7---7----7-|----------|-5---5-5---5|---------|
E|--------7---|-5--5-----|------------|-5-------|

Interlude:
G|--------------|-----7/9--7/9-7\-|--------------|---------|
D|--------------|-----------------|--------------|---------|
A|-----------5/7|-5---------------|-----------3/5|-3-------|
E|-3---5-6------|-----------------|-3---5-6------|---------|


Verse 2:
G|------------|------------|------------|-------------|
D|------------|------------|------------|-------------|
A|-5---5-5---0|-5---5-5---0|-7---7-7----|-7-----------|
E|------------|------------|-----------7|-----7-0-2-3-|

G|------------|------------|--------------|----------------|
D|------------|------------|--------------|---------7/9-\7-|
A|------------|------------|-5---5-5-5-4--|----------------|
E|-5---5-5---0|-5---5-5---5|-------------7|-5---5-5--------|

G|------------|------------|------------|-------------|
D|------------|------------|------------|-------------|
A|-5---5-5---0|-5---5-5---0|-7---7-7----|-7-----------|
E|------------|------------|-----------7|-----7-0-2-3-|

G|------------|------------|------------|------------|
D|------------|------------|------------|------------|
A|------------|------------|-5---5-5---0|-5---0-5---0|
E|-5---5-5---0|-5---5-5---5|------------|------------|


Pre-Chorus:
G|------------|-------------|----------|----------|
D|------------|-5-----/7-\5-|----------|----------|
A|---------3/5|-------------|-5-------5|-6-------6|
E|-3----------|-------------|----------|----------|

G|----------|----17/19--------|----------------|-----------------|
D|----------|----------17-----|----------------|---------9-7\----|
A|-7--------|------------19---|----------------|---7/9-7-------0-|
E|---0------|---------------0-|-5-5-5-5-5-5-5-5|-5---------------|


Chorus:
G|------------|---------------|------------|-----5/7-5------|
D|------------|-------5/7\----|------------|-----------7----|
A|-5---5-5---5|-4---4-------4-|-2---2-2---2|-0--------------|
E|------------|---------------|------------|-------------5\-|

G|------------|--------------|------------|-----------------|
D|------------|--------------|------------|---------9-7\----|
A|------------|-------------3|-5---5-5---5|---7/9-7-------0-|
E|-3---3-3---3|-3---3-3-5-6--|------------|-5---------------|

G|------------|-----------------|------------|-------5/7------|
D|------------|-----(5-6-7\)----|------------|-----------7----|
A|-5---5-5---5|-4-------------4-|-2---2-2---2|-0---0----------|
E|------------|-----------------|------------|-------------5\-|

G|------------|------------|------------|---------------|
D|------------|------------|------------|-----7/10--7---|
A|-----------5|------------|-5---5-5---5|-6-----------9-|
E|-3---3-3----|-3---3-3---3|------------|---------------|

G|-------------|----------|
D|-------------|----------|
A|-7---7----7--|----------|
E|--------7---7|-5--5-----|


Solo:
G|------------|------------|------------|-------------|
D|------------|------------|------------|-------------|
A|-5---5-5---5|-4---4-4---4|-2---2-2---2|-------------|
E|------------|------------|------------|-5---5-5-5--4|

G|------------|------------|------------|-----------------|
D|------------|------------|------------|---------9-7\----|
A|------------|------------|------------|---7/9-7-------0-|
E|-3---3-3---5|-6---5-3---3|-5---5-5---5|-5---------------|


Chorus:
G|------------|---------------|------------|-----5/7-------|
D|------------|-------5/7\----|------------|----------7----|
A|-5---5-5---5|-4---4-------4-|-2---2-2---2|-0-------------|
E|------------|---------------|------------|------------5\-|

G|------------|------------|------------|-----------------|
D|------------|------------|------------|---------9-7\----|
A|-----------5|------------|-5---5-5---5|---7/9-7-------0-|
E|-3---3-3----|-3---3-3---3|------------|-5---------------|

G|--------------7|-6---6-6/9--6-|------------|------------|
D|---------7-/9--|--------------|----4-0-----|------------|
A|-5---5-5-------|--------------|--------4-2-|------------|
E|---------------|--------------|------------|-5---5-5---4|

G|------------|------------|------------|---------------|
D|------------|------------|------------|-----7/10--7---|
A|-----------5|------------|-5---5-5---5|-6-----------9-|
E|-3---3-3----|-3---3-3---3|------------|---------------|

G|-------------|----------|-------------|---------|
D|-------------|----------|-------------|---------|
A|-7---7----7--|----------|-5---5-5---5\|-0-------|
E|--------7---7|-5--5-----|-------------|---------|


Outro:
G|--------------|-----7/9--7/9-7\-|--------------|------------|--|
D|--------------|-----------------|--------------|------------|--|
A|-----------5/7|-5---------------|-----------3/5|-3---3----3-|-5|
E|-3---5-6------|-----------------|-3---5-6------|--------3---|--|


************************************

| / Slide up
| \ Slide down
| (n-n) Fast

************************************

Almost there ...

Sign in to get your own page with links to favourite songs and more. You are just one click away...

Login with Facebook Login with Google