Log in

One click and you are in

Login with Facebook Login with Google

Why sign up and log in

Guitar Tabs Explorer
Nano Ripe guitar tabs for Tsuki hana

Solo tabs

GUITAR TUNING:
half-step down

s  - slide
po - pull out
h  - hammer
~  - ^ let ring (slight pause)
INTRO:
1|---3-------3------3--------3------3------3------3-----------2--3----|
2|----3-------3------3--------3------3------3------3----------3-------|
3|--0--0----0--0---0--0-----0--0---0--0---0--0---0--0-----2---2-------|
4|------------------------------------------------------0-----0-------|
5|------------------------2-------3------2------0---------------------|
6|-3-------2------0---------------------------------------------------|


SOLO:
1|-------------15-------|---------------------|---------------------------------------------------|
2|--11s12-14-15---15----|-12s13-12------------|------------------------------------------------15-|
3|----------------------|---------12-12h14-12~|---12-14-12-14s16-14-12-14-14-12-14s16-12~-12s14---|
4|----------------------|---------------------|-14------------------------------------------------|
5|----------------------|---------------------|---------------------------------------------------|
6|----------------------|---------------------|---------------------------------------------------|

1|-----15-14---------15---------------------------------|---------------------7--|
2|---15-----15~-15s17---17po15--12-12h13-12-------------|----8-------10----------|
3|-16--------------------------------------12-12h14-12~-|-7h9-----7h9-----7h9----|
4|------------------------------------------------------|------------------------|
5|------------------------------------------------------|------------------------|
6|------------------------------------------------------|------------------------|

1|----8-7-8-8s12-10-8po7-8po7---------|
2|---------------------------10po8-8~-|
3|-7h9--------------------------------|
4|------------------------------------|
5|------------------------------------|
6|------------------------------------|

there's a video in YT where i tabbed the solo.
just search it. this version was modified a little.

↓ Add and view comments below ↓

What do you think about this song and these tabs?

Add your comments, questions, rant or a thumbs up below.

Almost there ...

Sign in to get your own page with links to favourite songs and more. You are just one click away...

Login with Facebook Login with Google