Search tabs and chords

Search for song, artist or band

Log in

One click and you are in

Login with Facebook Login with Google

Why sign up and log in

Guitar Tabs Explorer
Masato Nakamura guitar tabs for Sonic green hill zone theme

Sonic Green Hill Zone Theme tab by Masato Nakamura

Masato Nakamura guitar tabs for Sonic green hill zone theme

Guitar tabs

[Intro]

e|---------------------------------------------------------------------------|
B|---------------------------------------------------------------------------|
G|---------------------------------------------------------------------------|
D|-----9-7-9-7-9-7-10-9-7-7-9-10-7-9-10-10-9---------------------------------|
A|---------------------------------------------------------------------------|
E|---------------------------------------------------------------------------|

[Riff]

e|-----8----8-7-8-7-----12p10-8-7-8-7---8----8-7-8-7---5-5---5---5-----------|
B|-------10---------8-8---------------8---10---------8-----6---7---7---------|
G|-------------------------------------------------------------------5-------|
D|---------------------------------------------------------------------------|
A|---------------------------------------------------------------------------|
E|---------------------------------------------------------------------------|

Play Intro once, riff 1 once, and riff 2 and outro once the restart and repeat
till you are bored. Only play intro the first time through. listen to the song
to get the right timing.

[Riff 2 and Outro]

e|-----8----8-7-8-7-----12p10-8-7-8-7---8----8-7-8-7---5-5---5---5-----------|
B|-------10---------8-8---------------8---10---------8-----6---7---7-----5---|
G|-------------------------------------------------------------------5-5---7-|
D|---------------------------------------------------------------------------|
A|---------------------------------------------------------------------------|
E|---------------------------------------------------------------------------|


e|---------------------------------------------------------------------------|
B|---------------5-----5-----------------------------------------------------|
G|-----5-7-9-5-5---7-5---7---------------------------------------------------|
D|---------------------------------------------------------------------------|
A|---------------------------------------------------------------------------|
E|---------------------------------------------------------------------------|



************************************
| p   Pull-off

Almost there ...

Sign in to get your own page with links to favourite songs and more. You are just one click away...

Login with Facebook Login with Google