Log in

One click and you are in

Login with Facebook Login with Google

Why sign up and log in

Guitar Tabs Explorer
Naglfar bass tabs for Harvest

Bass tabs

D#|------------------------|------------------------|
A#|------------------------|------------------------|
F |----------------3---4---|------------------------|
C |4---4-4---4-4-----------|2---2-2---2-2---2-2-2-2-|

|------------------------|------------------------|
|------------------------|------------------------|
|------------------------|----------------2---1---|
|2---2-2---2-2---4---2---|0---0-0---0-0-----------|

Almost there ...

Sign in to get your own page with links to favourite songs and more. You are just one click away...

Login with Facebook Login with Google