Search tabs and chords

Search for song, artist or band

Log in

One click and you are in

Login with Facebook Login with Google

Why sign up and log in

Guitar Tabs Explorer
Naglfar guitar tabs for Black god aftermath

Guitar tabs

-------------------------------------------------------------------------------

NAGLFAR-BLACK GOD AFTERMATH-from Sheol 2003
-------------------------------------------------------------------------------

Tabbed by:NihilView

Tuning:E standard  melodic black metal


e|--------------------------------------------------------------------------------------|
B|--------------------------------------------------------------------------------------|
G|--------------------------------------------------------------------------------------|INTRO
D|--------------------------------2----4--5---------4---5--------4--5----5--4--6--------|
A|--12----------------------------2----6--7----2----6---7---2----6--7----7--6--8--------|
E|--12-sl.//////////////////////--0------------0------------0------------0--------------|



e|--------------------3x--------------------------|------------------------------------------|
B|------------------------------------------------|------------------------------------------|
G|----------------------------------------8-------|-----------------1010--9------8-----------| FILL  1
D|---1010-9-------8-----------1010-9-10------10---|--------------------------10-------2------|
A|------------10----------------------------------|--7-8-----7------------------------2------|
E|------------------------------------------------|-------8---------------------------0------|



e|---------------------------------------------------------------------------|
B|---------------------------------------------------------------------------|
G|---------------------------------------------------------------------------| PRE-VERSE
D|---------------------------------------------------------------------------|
A|------77--10--7-9h10p9--7---5v----------7--10--9-7------------6v-----------|
E|--0---------------------------------0---------------88-77-88---------------|


e|--------------------------------------------------------------------------------|
B|--------------------------------------------------------------------------------|
G|-------------------------------------------------------------------------8------|
D|--444444--5-4-2---555555--7-5--4------------99--1010-9-7----10----7-9----8------|
A|--222222--2-2-2---333333--3-3--3--------00------------------10----7-9----6------|
E|------------------------------------------------------------8-----5-7-----------|


                                                                 2nd time
e|-------------------------------------------------------------|-----------------------------|
B|-------------------------------------------------------------|-----------------------------| VERSE
G|-------------------------------------------------------------|-----------------------------|
D|--5--4----5----4--5---4--5------------------------------4--4-|-----------------------------|
A|--7--6sl.-7----6--7---6--7------5-6----5-6----5-6----5--6--6-|---7-7---2----6--------------|
E|--0----------0------0-----------7-8--0-7-8-0--7-8--0-7-------|---5-5---0----4--------------|



e|-----------------------------------------------------------------------------|
B|-----------------------------------------------------------------------------|
G|-------------------------------------------------44-55-4-2---5-5--2---4------| CHORUS
D|-2-2-2-2---4--2-0----4-4-4-4-4--5-5-5--4---------------------3-3--2---2------|
A|-3-3-3-3---3--3-0----5-5-5-5-5--5-5-5--5---00----------------3-3--0---2------|
E|-----------------------------------------------------------------------------|


  REPEAT:INTRO
         PREVERSE
         VERSE



   BRIDGE:let ring with distortion.................................................................
e|--------------7-------------------------10--------------------------------------------------------|
B|-----------8-----8--------------------------11------------------------2------------------2--------|
G|--------9------------9-------------9------------12-----------------3-----3------------3-----3-----|
D|-----9--------------------------9-------------------------------3-----------3-------3---------3---|
A|--7-------------------------7-------------------------------1--------------------1----------------|
E|--------------------------------------------------------------------------------------------------|

e|----------------------------------------------------------------------|
B|----------------------------------------------------------------------|
G|-------5---------4----------5----------4----------5----------8----9---|
D|-----5--------4----------5---------4-----------5---------8--------9---|
A|--3-------2-----------3--------2------------3--------6------------7---|
E|------------------------------------------------------------------0---|




eI--------------------------------------------------------------------------|
BI--------------------------------------------------------------------------|
GI-----------------------------------------------------7p6h7p6--------------| INTERLUDE
DI--------------------------------------9---8------8-------------5----------|
AI--10p777---10p777---10p777---7-h-10----------8----------------------7-----|
EI--------------------------------------------------------------------------|


I-----------------------------------------------------------------10--------------|
I-------------------------------------------------------8-7-------------8---------|
I-------------------------------------------------------------9-------------------|
I-------------------------------------------88-----8------------------------------|
I--10p777--10p777----10p7777---10-9--6---------8----------------------------------|
I---------------------------------------------------------------------------------|


I----------------------------------------------------------------------------------|
I----------------------------------------------------------------------------------|
I---------------------------------------------------5--------4--------5-------8----|
I------------------------------------------------5---------4-------5--------8------|
I----10p7777--10p777-10p777----10-9-----------3---------2-------3---------6--------|
I-------------------------------------11-------------------------------------------|


REPEAT:VERSE
       CHORUS

and listen song for tempo timing and structure!!
************************************

| /   slide up
| \   slide down
| h   hammer-on
| p   pull-off
| ~   vibrato
| +   harmonic
| x   Mute note
| b   Bend
| pb  Pre-bend
| br  Bend release
| pbr Pre-bend release
| brb Bend release bend

************************************

Almost there ...

Sign in to get your own page with links to favourite songs and more. You are just one click away...

Login with Facebook Login with Google