Log in

One click and you are in

Login with Facebook Login with Google

Why sign up and log in

Guitar Tabs Explorer
Nagas guitar tabs for Journée ordinaire

Guitar tabs

Tuning: Standard (E A D G B E)

Journée ordinaire
NAGAS
Symbiose

TUNING : E-A-D-G-B-E


Intro:
(Overdrive guitar + drum)

e|---12--12--12--12--12--12--12--12--12--12--12--12--12--12--12--12-|
B|-12--12--12--12--13--13--13--13--12--12--12--12--13--13--13--13---|
G|------------------------------------------------------------------| x2
D|------------------------------------------------------------------|
A|------------------------------------------------------------------|
E|------------------------------------------------------------------|

   A chord diagramE5E5              A chord diagramC5C5              A chord diagramG5G5              A chord diagramB5B5
e|------------------------------------------------------------------|
B|-8---8-8--8-8-8--5---5-5--5-5-5-----------------------------------|
G|-9---9-9--9-9-9--5---5-5--5-5-5--4---4-4--4-4-4--7---7-7--7-7-7---| x2
D|-9---9-9--9-9-9--5---5-5--5-5-5--5---5-5--5-5-5--9---9-9--9-9-9---|
A|-7---7-7--7-7-7--3---3-3--3-3-3--5---5-5--5-5-5--9---9-9--9-9-9---|
E|---------------------------------3---3-3--3-3-3--7---7-7--7-7-7---|


Verse 1:
(Drum & bass / Guitar off)
   A chord diagramE5E5              A chord diagramC5C5              A chord diagramG5G5              A chord diagramB5B5
e|------------------------------------------------------------------|
B|------------------------------------------------------------------|
G|------------------------------------------------------------------| x2
D|------------------------------------------------------------------|
A|------------------------------------------------------------------|
E|------------------------------------------------------------------|

(with overdrive)
   A chord diagramE5E5              A chord diagramC5C5              A chord diagramG5G5              A chord diagramB5B5
e|------------------------------------------------------------------|
B|-----8-8----8-8------5-5----5-5-----------------------------------|
G|-x-x-9-9--x-9-9--x-x-5-5--x-5-5------4-4----4-4------7-7----7-7---| x2
D|-x-x-9-9--x-9-9--x-x-5-5--x-5-5--x-x-5-5--x-5-5--x-x-9-9--x-9-9---|
A|-x-x-7-7--x-7-7--x-x-3-3--x-3-3--x-x-5-5--x-5-5--x-x-9-9--x-9-9---|
E|---------------------------------x-x-3-3--x-3-3--x-x-7-7--x-7-7---|


Chorus:
(with overdrive)
   A chord diagramE5E5              A chord diagramC5C5              A chord diagramG5G5              A chord diagramB5B5
e|------------------------------------------------------------------|
B|-8---8-8--8-8-8--5---5-5--5-5-5-----------------------------------|
G|-9---9-9--9-9-9--5---5-5--5-5-5--4---4-4--4-4-4--7---7-7--7-7-7---| x2
D|-9---9-9--9-9-9--5---5-5--5-5-5--5---5-5--5-5-5--9---9-9--9-9-9---|
A|-7---7-7--7-7-7--3---3-3--3-3-3--5---5-5--5-5-5--9---9-9--9-9-9---|
E|---------------------------------3---3-3--3-3-3--7---7-7--7-7-7---|


Instrumental:
(with overdrive)
   A chord diagramE5E5              A chord diagramC5C5              A chord diagramG5G5              A chord diagramB5B5
e|---12--12--12--12--12--12--12--12--10--10--10--11--11--11--11--11-|
B|-12--12--12--12--13--13--13--13--12--12--12--12--12--12--12--12---|
G|------------------------------------------------------------------| x2
D|------------------------------------------------------------------|
A|------------------------------------------------------------------|
E|------------------------------------------------------------------|


Verse 2:
(Drum & bass / Guitar off)
   A chord diagramE5E5              A chord diagramC5C5              A chord diagramG5G5              A chord diagramB5B5
e|------------------------------------------------------------------|
B|------------------------------------------------------------------|
G|------------------------------------------------------------------| x2
D|------------------------------------------------------------------|
A|------------------------------------------------------------------|
E|------------------------------------------------------------------|

(with overdrive)
   A chord diagramE5E5              A chord diagramC5C5              A chord diagramG5G5              A chord diagramB5B5
e|------------------------------------------------------------------|
B|-----8-8----8-8------5-5----5-5-----------------------------------|
G|-x-x-9-9--x-9-9--x-x-5-5--x-5-5------4-4----4-4------7-7----7-7---| x2
D|-x-x-9-9--x-9-9--x-x-5-5--x-5-5--x-x-5-5--x-5-5--x-x-9-9--x-9-9---|
A|-x-x-7-7--x-7-7--x-x-3-3--x-3-3--x-x-5-5--x-5-5--x-x-9-9--x-9-9---|
E|---------------------------------x-x-3-3--x-3-3--x-x-7-7--x-7-7---|


Chorus:
(with overdrive)
   A chord diagramE5E5              A chord diagramC5C5              A chord diagramG5G5              A chord diagramB5B5
e|------------------------------------------------------------------|
B|-8---8-8--8-8-8--5---5-5--5-5-5-----------------------------------|
G|-9---9-9--9-9-9--5---5-5--5-5-5--4---4-4--4-4-4--7---7-7--7-7-7---| x4
D|-9---9-9--9-9-9--5---5-5--5-5-5--5---5-5--5-5-5--9---9-9--9-9-9---|
A|-7---7-7--7-7-7--3---3-3--3-3-3--5---5-5--5-5-5--9---9-9--9-9-9---|
E|---------------------------------3---3-3--3-3-3--7---7-7--7-7-7---|


Instrumental:
(with overdrive)
   A chord diagramE5E5              A chord diagramC5C5              A chord diagramG5G5              A chord diagramB5B5
e|---12--12--12--12--12--12--12--12--10--10--10--11--11--11--11--11-|
B|-12--12--12--12--13--13--13--13--12--12--12--12--12--12--12--12---|
G|------------------------------------------------------------------| x2
D|------------------------------------------------------------------|
A|------------------------------------------------------------------|
E|------------------------------------------------------------------|


Bridge:
(Guitar 1 with Overdrive)
   A chord diagramE5E5              A chord diagramC5C5              A chord diagramG5G5              A chord diagramB5B5
e|-12--------------14--------------15--------------14-----------------|
B|-----12--------------12--------------12--------------12-------------|
G|--------------------------------------------------------------------|
D|--------------------------------------------------------------------|
A|--------------------------------------------------------------------|
E|--------------------------------------------------------------------|

(Guitar 2 off)
   A chord diagramE5E5              A chord diagramC5C5              A chord diagramG5G5              A chord diagramB5B5
e|--------------------------------------------------------------------|
B|--------------------------------------------------------------------|
G|--------------------------------------------------------------------|
D|--------------------------------------------------------------------|
A|--------------------------------------------------------------------|
E|--------------------------------------------------------------------|

(Guitar 1 with Overdrive)
   A chord diagramE5E5              A chord diagramC5C5              A chord diagramG5G5              A chord diagramB5B5
e|-12--------------14--------------15--------------14-----------------|
B|-----12--------------12--------------12--------------12-------------|
G|--------------------------------------------------------------------|
D|--------------------------------------------------------------------|
A|--------------------------------------------------------------------|
E|--------------------------------------------------------------------|

(Guitar 2 with Overdrive)
   A chord diagramE5E5              A chord diagramC5C5              A chord diagramG5G5              A chord diagramB5B5
e|--------------------------------------------------------------------|
B|\12--0----------\13--0----------\15--0----------\13--0--------------|
G|--------------------------------------------------------------------|
D|--------------------------------------------------------------------|
A|--------------------------------------------------------------------|
E|--------------------------------------------------------------------|

(Guitar 1 with Overdrive)
   A chord diagramE5E5              A chord diagramC5C5              A chord diagramG5G5              A chord diagramB5B5
e|-12------12------14------14------15------15------14------14---------|
B|-----12------12------12------12------12------12------12------12-----|
G|--------------------------------------------------------------------|
D|--------------------------------------------------------------------|
A|--------------------------------------------------------------------|
E|--------------------------------------------------------------------|

(Guitar 2 with Overdrive)
   A chord diagramE5E5              A chord diagramC5C5              A chord diagramG5G5              A chord diagramB5B5
e|--------------------------------------------------------------------|
B|\12--0----------\13--0----------\15--0----------\13--0--------------|
G|--------------------------------------------------------------------|
D|--------------------------------------------------------------------|
A|--------------------------------------------------------------------|
E|--------------------------------------------------------------------|

(Guitar 1 with Overdrive)
   A chord diagramE5E5              A chord diagramC5C5              A chord diagramG5G5              A chord diagramB5B5
e|-12------12------14------14------15------15------14------14---------|
B|-----12------12------12------12------12------12------12------12-----|
G|--------------------------------------------------------------------|
D|--------------------------------------------------------------------|
A|--------------------------------------------------------------------|
E|--------------------------------------------------------------------|

(Guitar 2 with E-bow + Overdrive)
   A chord diagramE5E5              A chord diagramC5C5              A chord diagramG5G5              A chord diagramB5B5
e|--------------------------------------------------------------------|
B|\12-----------------------------------------------------------------|
G|--------------------------------------------------------------------|
D|--------------------------------------------------------------------|
A|--------------------------------------------------------------------|
E|--------------------------------------------------------------------|


Chorus:
(with overdrive)
   A chord diagramE5E5              A chord diagramC5C5              A chord diagramG5G5              A chord diagramB5B5
e|------------------------------------------------------------------|
B|-8---8-8--8-8-8--5---5-5--5-5-5-----------------------------------|
G|-9---9-9--9-9-9--5---5-5--5-5-5--4---4-4--4-4-4--7---7-7--7-7-7---| x3
D|-9---9-9--9-9-9--5---5-5--5-5-5--5---5-5--5-5-5--9---9-9--9-9-9---|
A|-7---7-7--7-7-7--3---3-3--3-3-3--5---5-5--5-5-5--9---9-9--9-9-9---|
E|---------------------------------3---3-3--3-3-3--7---7-7--7-7-7---|

   A chord diagramE5E5              A chord diagramC5C5              A chord diagramG5G5              A chord diagramB5B5
e|------------------------------------------------------------------|
B|-8---8-8--8-8-8--5---5-5--5-5-5-----------------------------------|
G|-9---9-9--9-9-9--5---5-5--5-5-5--4---4-4--4-4-4--7-7-7-7----------|
D|-9---9-9--9-9-9--5---5-5--5-5-5--5---5-5--5-5-5--9-9-9-9----------|
A|-7---7-7--7-7-7--3---3-3--3-3-3--5---5-5--5-5-5--9-9-9-9----------|
E|---------------------------------3---3-3--3-3-3--7-7-7-7----------|


************************************

| x  Dead note

************************************

Other versions of Journée Ordinaire

Journee ordinaireChords

Almost there ...

Sign in to get your own page with links to favourite songs and more. You are just one click away...

Login with Facebook Login with Google