Log in

One click and you are in

Login with Facebook Login with Google

Why sign up and log in

Guitar Tabs Explorer
Naftalina bass tabs for Se

Bass tabs

intro
g:---------------------------
d:---------------------------
a:---3---3---3---3----3----3-
e:---------------------------

strofa + ritornello(solo pi? veloce)
g:---------------------------------------------------------
d:---------------------------------------------------------
a:--3--3--3--3--3------------------------------------------
e:----------------5--5--5--5--4--4--4--4--3--3--3--3--3-4-5

inciso
g:-------------------------------
d:-------------------------------
a:---3---3------6--6-----10-10-10
e:----------5-5------------------

Tabbed by Veru' Bassist of "Coito Interrotto"
per correzzioni o ringraziamenti o qualsiasi altra cosa scrivete a:
rancidnofx83@hotmail.com

Almost there ...

Sign in to get your own page with links to favourite songs and more. You are just one click away...

Login with Facebook Login with Google